Oops, an error
Loading. Please wait.
We have an official Put It There tab made by UG professional guitarists. Check out the tab »
×
202 views 1 this week
no commentswrite comment
1 2 3 4 5
3 more votes to show rating
add to favorites
×
Save as Personal and add changes to this tab that will be seen only by you. Learn more ›
×
You can save this tab as Personal to edit and correct it or add notes. All changes will be seen only by you. Learn more »
launch autoscroll
font size
0
reset
guitar tuner
edit
Autoscroll
slow
fast
+/-
esc
set tempo
stop
Author
Put it There – Paul McCartney 
Tabbed By : Joe Kestenbaum 

Intro

G|-------------------||
D|-------------------|| repeat 3x
A|---3---2-------5---||
E|-----------5-------||

G|-------------------|
D|-------------------| 4th time
A|---3---2---5-------|
E|-------------------|

Verses

G|-------------------|-------------------|-------------------|-------------------|
D|-------------------|-------------------|-------------------|-------------------|
A|-------2-------2---|---5-------5-------|-------2-------2---|---5-------5-------|
E|---3-------3-------|-------5-------5---|---3-------3-------|-------5-------5---|
  1. Give me your hand I'd like to shake it  I want to show you I'm your friend.
  2. If there's a fight I'd like to fix it,  I hate to see things go so wrong.

G|-------------------|-------------------|-------------------|-------------------|
D|-------------------|-------------------|-------------------|-------------------|
A|-------2---5---2---|---5-------5-------|-------2---5---2---|---5-------5-------|
E|---3---------------|-------5-------5---|---3---------------|-------5-------5---|
1.      You'll understand if I can make it clear, its all that matters in the end.
 2.The darkest night and all it's mixed emotions, is getting lighter sing a song.

Chorus

G|-------------------|--------------------|------------------|-----------0-2-0---------|
D|-----------------2-|--------------------|---------------2--|-----------------2-------|
A|-5-4-2-------------|------2----5---2----|---5--------------|----------------------0--|
E|--------2----5-----|---3----------------|-------5---5------|---3---3-----------3-----|
   Put it there if it weighs a ton, that's what the father said to his young son. I don't 

G|-------------------|--------------------|------------------|---------------------|
D|---------------2---|--------------------|------------------|---------------------|
A|---2-------0-------|------2---5---2-----|---5---5----------|---2----0------------|
E|-------3-----------|---3----------------|-----------5---5--|-------2----3---3----|
   Care      if it weighs a ton, as long as you and I are here, put it there.

1ST time
G|-------------------|--------------------|
D|-------------------|--------------------|  Repeat Intro
A|-5---5-------------|---5---5---5---5----|
E|----------5---5----|--------------------|
  Long as you and I are here, put it there.

2nd time
G|-------------------|--------------------|------------------|
D|-------------------|--------------------|------------------|
A|-5---5-------------|--------------------|---5--------------|
E|----------5---5----|---3---3-5---3---3--|------------------|
   Long as you and I are here, put it there.


            
            
Suggest correction
Creating personal tab
Creating personal tab
You can edit any tab online and save it as your Personal.

You can edit, replace or remove any tab part or add personal notes – all changes will be seen only by you.

Personal tabs can be accessed anytime from any device, even offline.
Learn more »
Give kudos to tab author, rate the tab!
1 2 3 4 5
comments
print report bad tab
guest
You may want to rate the tab now too:
select rating
Wanna post a correction for this tab? Suggest correction