Oops, an error
Loading. Please wait.

Smile Away bass

154 views 1 this week
no commentswrite comment
1 2 3 4 5
3 more votes to show rating
add to favorites
×
Save as Personal and add changes to this tab that will be seen only by you. Learn more ›
×
You can save this tab as Personal to edit and correct it or add notes. All changes will be seen only by you. Learn more »
launch autoscroll
font size
0
reset
guitar tuner
edit
Autoscroll
slow
fast
+/-
esc
set tempo
stop
Author
Difficulty
Intro :
G|---------------------------------|---------------------------------|
D|9-----9-9-----9-9-----9-9-----9--|9-----9-9-------9-------8--------|
A|---------------------------------|---------------------------------|
E|---------------------------------|---------------------------------|

G|---------------------------------|---------------------------------|
D|7-----7-7-----7-7-----7-7-----7--|7-----7-7-------7-------8--------|
A|---------------------------------|---------------------------------|
E|---------------------------------|---------------------------------|

G|---------------------------------|---------------------------------|
D|9-----9-9-----9-9-----9-9-----9--|9-----9-9---------------8--------|
A|---------------------------------|---------------------------------|
E|---------------------------------|---------------------------------|

G|---------------------------------|---------------------------------|
D|7-----7-7-----7-7-----7-7-----7--|7-----7-7-------7----------------|
A|---------------------------------|---------------------------------|
E|---------------------------------|------------------------8---\----|

G|---------------------------------|---------------------------------|
D|---------------------------------|---------------------------------|
A|---------------------------------|---------------------------------|
E|0-----0-3-------0-----0-3--------|0-----0-3-------0-----0-3--------|

G|---------------------------------|---------------------------------|
D|7-----7-5-------7-----7-5--------|7-----7-5-------7-----7-5--------|
A|---------------------------------|---------------------------------|
E|---------------------------------|---------------------------------|

G|---------------------------------|---------------------------------|
D|---------------------------------|---------------------------------|
A|---------------------------------|---------------------------------|
E|0-----0-3-------0-----0-3--------|0-----0-3-------0-----0-3--------|

G|---------------------------------|---------------------------------|
D|7-----7-5-------7-----7-5--------|7-----7-5------------------------|
A|---------------------------------|------------------------5--------|
E|---------------------------------|----------------5----------------|

Verse 1 :
G|---------------------------------|---------------------------------|
D|9-----9-9-----9-9-----9-9-----9--|9-----9-9-------9-------8--------|
A|---------------------------------|---------------------------------|
E|---------------------------------|---------------------------------|

G|---------------------------------|---------------------------------|
D|7-----7-7-----7-7-----7-7-----7--|7-----7-7-------7-------8--------|
A|---------------------------------|---------------------------------|
E|---------------------------------|---------------------------------|

G|---------------------------------|---------------------------------|
D|9-----9-9-----9-9-----9-9-----9--|9-----9-9-------9-------8--------|
A|---------------------------------|---------------------------------|
E|---------------------------------|---------------------------------|

G|---------------------------------|---------------------------------|
D|7-----7-7-----7-7-----7-7-----7--|7-----7-7-----7-7-----7-7--------|
A|---------------------------------|---------------------------------|
E|---------------------------------|---------------------------------|

Chorus :
G|---------------------------------|---------------------------------|
D|---------------------------------|---------------------------------|
A|---------------------------------|---------------------------------|
E|0-----0-3-------0-----0-3--------|0-----0-3-------0-----0-3--------|

G|---------------------------------|---------------------------------|
D|7-----7-5-------7-----7-5--------|7-----7-5-------7-----7-5--------|
A|---------------------------------|---------------------------------|
E|---------------------------------|---------------------------------|

G|---------------------------------|---------------------------------|
D|---------------------------------|---------------------------------|
A|---------------------------------|---------------------------------|
E|0-----0-3-------0-----0-3--------|0-----0-3-------0-----0-3--------|

G|---------------------------------|---------------------------------|
D|7-----7-5-------7-----7-5--------|7-----7-5------------------------|
A|---------------------------------|------------------------5--------|
E|---------------------------------|----------------5----------------|

Solo :
G|---------------------------------|---------------------------------|
D|---------------------------------|---------------------------------|
A|---------------------------------|---------------------------------|
E|7-----7-7-----7-7-----7-7-----7--|7-----7-7-------7-------6--------|

G|---------------------------------|---------------------------------|
D|7-----7-7-----7-7-----7-7-----7--|7-----7-7-------7-------8--------|
A|---------------------------------|---------------------------------|
E|---------------------------------|---------------------------------|

G|---------------------------------|---------------------------------|
D|---------------------------------|---------------------------------|
A|---------------------------------|---------------------------------|
E|7-----7-7-----7-7-----7-7-----7--|7-----7-7-------7-------6--------|

G|---------------------------------|---------------------------------|
D|---------------------------------|---------------------------------|
A|---------------------------------|---------------------------------|
E|5-----5-5-----5-5-----5-5-----5--|5-----5-5-----5-5-----5-5--------|

Chorus :
G|---------------------------------|---------------------------------|
D|---------------------------------|---------------------------------|
A|---------------------------------|---------------------------------|
E|0-----0-3-------0-----0-3--------|0-----0-3-------0-----0-3--------|

G|---------------------------------|---------------------------------|
D|---------------------------------|---------------------------------|
A|---------------------------------|---------------------------------|
E|5-----5-3-------5-----5-3--------|5-----5-3-------5-----5-3--------|

G|---------------------------------|---------------------------------|
D|---------------------------------|---------------------------------|
A|---------------------------------|---------------------------------|
E|0-----0-3-------0-----0-3--------|0-----0-3-------0-----0-3--------|

G|---------------------------------|---------------------------------|
D|---------------------------------|---------------------------------|
A|---------------------------------|------------------------5--------|
E|5-----5-3-------5-----5-3--------|5-----5-3-------5----------------|

Verse 2 :
G|---------------------------------|---------------------------------|
D|---------------------------------|---------------------------------|
A|---------------------------------|---------------------------------|
E|7-----7-7-----7-7-----7-7-----7--|7-----7-7-------7-------6--------|

G|---------------------------------|---------------------------------|
D|7-----7-7-----7-7-----7-7-----7--|7-----7-7-------7-------8--------|
A|---------------------------------|---------------------------------|
E|---------------------------------|---------------------------------|

G|---------------------------------|---------------------------------|
D|---------------------------------|---------------------------------|
A|---------------------------------|---------------------------------|
E|7-----7-7-----7-7-----7-7-----7--|7-----7-7-------7-------6--------|

G|---------------------------------|---------------------------------|
D|---------------------------------|---------------------------------|
A|---------------------------------|---------------------------------|
E|5-----5-5-----5-5-----5-5-----5--|5-----5-5-----5-5-----5-5--------|

Chorus : (Repeat 8 times)
G|---------------------------------|---------------------------------|
D|---------------------------------|---------------------------------|
A|---------------------------------|---------------------------------|
E|0-----0-3-------0-----0-3--------|0-----0-3-------0-----0-3--------|

G|---------------------------------|---------------------------------|
D|---------------------------------|---------------------------------|
A|---------------------------------|---------------------------------|
E|5-----5-3-------5-----5-3--------|5-----5-3-------5-----5-3--------|

Then :
G|---------------------------------|---------------------------------|
D|---------------------------------|---------------------------------|
A|7-----6-7-----6-7-----6-7-----6--|7-----6-7-----6-7-----6-7--------|
E|---------------------------------|------------------------------3/-|

G|---------------------------------|---------------------------------|
D|---------------------------------|---------------------------------|
A|---------------------------------|------------------------5--------|
E|5-----3/5-----3/5-----3/5-----3/-|5-----3/5-----3/5----------------|

Verse 3 :
G|---------------------------------|---------------------------------|
D|---------------------------------|---------------------------------|
A|---------------------------------|---------------------------------|
E|7-----7-7-----7-7-----7-7-----7--|7-----7-7-------7-------6--------|

G|---------------------------------|---------------------------------|
D|---------------------------------|---------------------------------|
A|---------------------------------|---------------------------------|
E|5-----5-5-----5-5-----5-5-----5--|5-----5-5-------5-------6--------|

G|---------------------------------|---------------------------------|
D|---------------------------------|---------------------------------|
A|---------------------------------|---------------------------------|
E|7-----7-7-----7-7-----7-7-----7--|7-----7-7-------7-------6--------|

G|---------------------------------|---------------------------------|
D|---------------------------------|---------------------------------|
A|---------------------------------|---------------------------------|
E|5-----5-5-----5-5-----5-5-----5--|5-----5-5-----5-5-----5-5--------|

Chorus : (Repeat until the end)
G|---------------------------------|---------------------------------|
D|---------------------------------|---------------------------------|
A|---------------------------------|---------------------------------|
E|0-----0-3-------0-----0-3--------|0-----0-3-------0-----0-3--------|

G|---------------------------------|---------------------------------|
D|---------------------------------|---------------------------------|
A|---------------------------------|---------------------------------|
E|5-----5-3-------5-----5-3--------|5-----5-3-------5-----5-3--------|

            
            
Suggest correction
Creating personal tab
Creating personal tab
You can edit any tab online and save it as your Personal.

You can edit, replace or remove any tab part or add personal notes – all changes will be seen only by you.

Personal tabs can be accessed anytime from any device, even offline.
Learn more »
Give kudos to tab author, rate the tab!
1 2 3 4 5
comments
print report bad tab
guest
You may want to rate the tab now too:
select rating
Wanna post a correction for this tab? Suggest correction