Oops, an error
Loading. Please wait.

Thats All Right Mama bass

118 views 1 this week
no commentswrite comment
1 2 3 4 5
3 more votes to show rating
add to favorites
×
Save as Personal and add changes to this tab that will be seen only by you. Learn more ›
×
You can save this tab as Personal to edit and correct it or add notes. All changes will be seen only by you. Learn more »
launch autoscroll
font size
0
reset
guitar tuner
edit
Autoscroll
slow
fast
+/-
esc
set tempo
stop
Intro :
G|---------------------------------|---------------------------------|
D|7---------------7----------------|7---------------7----------------|
A|--------7---------------7--------|--------7---------------7--------|
E|---------------------------------|---------------------------------|

Chorus :
G|---------------------------------|---------------------------------|
D|7---------------7----------------|7---------------7----------------|
A|--------7---------------7--------|--------7---------------7--------|
E|---------------------------------|---------------------------------|

G|---------------------------------|---------------------------------|
D|7---------------7----------------|7--------------------------------|
A|--------7---------------7--------|--------7---------------4--------|
E|---------------------------------|----------------6----------------|

G|---------------------------------|---------------------------------|
D|---------------------------------|---------------------------------|
A|5---------------5----------------|5---------------5-----------5----|
E|--------5---------------5--------|--------5---------------5--------|

G|---------------------------------|---------------------------------|
D|---------------------------------|---------------------------------|
A|7---------------7----------------|7---------------7-----------7----|
E|--------7---------------7--------|--------7---------------7--------|

G|---------------------------------|---------------------------------|
D|7---------------7----------------|7---------------7----------------|
A|--------7---------------7-7------|--------7---------------7-7------|
E|---------------------------------|---------------------------------|

Verse 1 :
G|---------------------------------|---------------------------------|
D|7---------------7----------------|7---------------7----------------|
A|--------7---------------7--------|--------7---------------7--------|
E|---------------------------------|---------------------------------|

G|---------------------------------|---------------------------------|
D|7---------------7----------------|7-------5-------4----------------|
A|--------7---------------7--------|------------------------7--------|
E|---------------------------------|---------------------------------|

Chorus :
G|---------------------------------|---------------------------------|
D|---------------------------------|---------------------------------|
A|5---------------5----------------|5---------------5-----------5----|
E|--------5---------------5--------|--------5---------------5--------|

G|---------------------------------|---------------------------------|
D|---------------------------------|---------------------------------|
A|7---------------7----------------|7---------------7----------------|
E|--------7---------------7--------|--------7---------------7--------|

G|---------------------------------|---------------------------------|
D|7---------------7-----------5----|7---------------7-----------5----|
A|--------7---------------7--------|--------7---------------7--------|
E|---------------------------------|---------------------------------|

Verse 2 :
G|---------------------------------|---------------------------------|
D|7--------------------------------|---------------------------------|
A|--------7---------------7--------|--------7---------------7--------|
E|----------------5----------------|5---------------5----------------|

G|---------------------------------|---------------------------------|
D|---------------------------------|---------------------------------|
A|--------7---------------7---7----|0---0---2---2---3---3---4---4----|
E|5---------------5----------------|---------------------------------|

Chorus :
G|---------------------------------|---------------------------------|
D|---------------------------------|---------------------------------|
A|5---------------5----------------|5---------------5-----------5----|
E|--------5---------------5--------|--------5---------------5--------|

G|---------------------------------|---------------------------------|
D|---------------------------------|---------------------------------|
A|7---------------7----------------|7---------------7-----------7----|
E|--------7-7-------------7--------|--------7---------------7--------|

G|---------------------------------|---------------------------------|
D|----------------------------5----|---------------------------------|
A|--------7---------------7--------|--------7-----------7-7-----7----|
E|5---------------5----------------|5---------------5----------------|

Solo
G|---------------------------------|---------------------------------|
D|---------------------------------|---------------------------------|
A|---------------------------------|---------------------------------|
E|5-------0---4---5-------0---4----|5-------0---4---5-------0---4----|

G|---------------------------------|---------------------------------|
D|---------------------------------|---------------------------------|
A|---------------------------------|--------2---2---3---3---4---4----|
E|5-------0---4---5-------0---4----|5---5----------------------------|

G|---------------------------------|---------------------------------|
D|---------------------------------|---------------------------------|
A|5---------------5----------------|5---------------5----------------|
E|--------5-------------0-3---5----|--------5---------------5--------|

G|---------------------------------|---------------------------------|
D|---------------------------------|------------------------4---6----|
A|7---------------7----------------|7---------------5---7------------|
E|--------7---------------7--------|--------7---5--------------------|

G|---------------------------------|---------------------------------|
D|7---------------7-----------5----|7---------------7----------------|
A|--------7---------------7--------|--------7---------------7--------|
E|---------------------------------|---------------------------------|

Verse 3 :
G|---------------------------------|---------------------------------|
D|7---------------7----------------|7---------------7----------------|
A|--------7---------------7--------|--------7---------------7--------|
E|---------------------------------|---------------------------------|

G|---------------------------------|---------------------------------|
D|7---------------7----------------|---------------------------------|
A|--------7---------------7--------|0---0---2---2---3---3---4---4----|
E|---------------------------------|---------------------------------|

Chorus :
G|---------------------------------|---------------------------------|
D|---------------------------------|---------------------------------|
A|5---------------5----------------|5---------------5-----------5----|
E|--------5---------------5--------|--------5---------------5--------|

G|---------------------------------|---------------------------------|
D|---------------------------------|---------------------------------|
A|7---------------7----------------|7---------------7-----------7----|
E|--------7---------------7--------|--------7---------------7--------|

G|---------------------------------|---------------------------------|
D|7---------------7-----------5----|7---------------7----------------|
A|--------7---------------7--------|--------7---------------7---7----|
E|---------------------------------|---------------------------------|

Verse 4 :
G|---------------------------------|---------------------------------|
D|7---7-----------7---7------------|7---7-----------7---7------------|
A|--------7---7-----------7---7----|--------7---7-----------7---7----|
E|---------------------------------|---------------------------------|

G|---------------------------------|---------------------------------|
D|7---7-----------7---7---5---5----|4---4---3---3--------------------|
A|--------7---7--------------------|----------------7---7---5---5----|
E|---------------------------------|---------------------------------|

Chorus :
G|---------------------------------|---------------------------------|
D|---------------------------------|---------------------------------|
A|5---------------5----------------|5---------------5-----------5----|
E|--------5---------------5--------|--------5---------------5--------|

G|---------------------------------|---------------------------------|
D|---------------------------------|---------------------------------|
A|7---------------7----------------|7---------------7-----------7----|
E|--------7---------------7--------|--------7---------------7--------|

G|---------------------------------|---------------------------------|
D|---------------------------------|---------------------------------|
A|--------7---------------7--------|--------7---------------7--------|
E|5---------------5-----------3----|5-----------3---5-----------3----|

Solo :
G|---------------------------------|---------------------------------|
D|---------------------------------|---------------------------------|
A|--------7---------------7--------|--------7---------------7--------|
E|5---------------5-----------3----|5---------------5-----------3----|

G|---------------------------------|---------------------------------|
D|---------------------------------|---------------------------------|
A|--------7---------------7--------|0---0---2---2---3---3---4---4----|
E|5---------------5-----------3----|---------------------------------|

G|---------------------------------|---------------------------------|
D|---------------------------------|---------------------------------|
A|5---------------5----------------|5---------------5-----------5----|
E|--------5-------------0-3---5----|--------5---------------5--------|

G|---------------------------------|---------------------------------|
D|---------------------------------|------------------------4---6----|
A|7---------------7-----------5----|7---------------7----------------|
E|--------7---------------7--------|--------7-7----------------------|

G|---------------------------------|---------------------------------|
D|7-------7---------------7--------|7---------------7----------------|
A|----------------7-----------7----|--------7---------------7---7----|
E|---------------------------------|---------------------------------|

Verse 5 :
G|---------------------------------|---------------------------------|
D|---------------------------------|---------------------------------|
A|---------------------------------|---------------------------------|
E|5-------0-------5-------0---3----|5-------0-------5-------0---3----|

G|---------------------------------|---------------------------------|
D|---------------------------------|---------------------------------|
A|---------------------------------|0---0---2---2---3---3---4---4----|
E|5-------0-------5-------0--------|---------------------------------|

Chorus :
G|---------------------------------|---------------------------------|
D|---------------------------------|---------------------------------|
A|5---------------5----------------|5---------------5----------------|
E|--------5---------------5--------|--------5---------------5--------|

G|---------------------------------|---------------------------------|
D|---------------------------------|---------------------------------|
A|7---------------7----------------|7---------------7----------------|
E|--------7---------------7--------|--------7---------------7--------|

G|---------------------------------|---------------------------------|
D|---------------------------------|---------------------------------|
A|--------7------------------------|--------7------------------------|
E|5---------------5-------0---3----|5---------------5---5---0---3----|

Verse 6 :
G|---------------------------------|---------------------------------|
D|---------------------------------|---------------------------------|
A|---------------------------------|---------------------------------|
E|5-------0---3---5-------0---3----|5-------0-------5-------0---3----|

G|---------------------------------|
D|---------------------------------|
A|----------------0---2---3---0----|
E|5---5---0---0--------------------|

Chorus :
G|---------------------------------|---------------------------------|
D|---------------------------------|---------------------------------|
A|5---------------5-----------3----|5---------------5-----------5----|
E|--------5---------------5--------|--------5---------------5--------|

G|---------------------------------|---------------------------------|
D|---------------------------------|---------------------------------|
A|7---------------7----------------|7---------------7----------------|
E|--------7---------------7--------|--------7---------------7--------|

G|---------------------------------|---------------------------------|
D|7---------------7-----------5----|7---------------7---7------------|
A|--------7---------------7--------|--------7---------------5---5----|
E|---------------------------------|---------------------------------|

G|---------------------------------|---------------------------------|
D|---------------------------------|---------------------------------|
A|7---------------7----------------|7---------------7----------------|
E|--------7---------------7--------|--------7---------------7--------|

G|---------------------------------|---------------------------------|
D|7---------------7-----------5----|7---------------7---7------------|
A|--------7---------------7--------|--------7---------------5---5----|
E|---------------------------------|---------------------------------|

G|---------------------------------|---------------------------------|
D|---------------------------------|---------------------------------|
A|7---------------7----------------|7---------------7-------5--------|
E|--------7---------------7--------|--------7------------------------|

G|---------------------------------|---------------------------------|
D|---------------------------------|---------------------------------|
A|--------4---4---5---5---7---7----|7---5---4------------------------|
E|5---5----------------------------|------------5--------------------|

            
            
Suggest correction
Creating personal tab
Creating personal tab
You can edit any tab online and save it as your Personal.

You can edit, replace or remove any tab part or add personal notes – all changes will be seen only by you.

Personal tabs can be accessed anytime from any device, even offline.
Learn more »
Give kudos to tab author, rate the tab!
1 2 3 4 5
comments
print report bad tab
guest
You may want to rate the tab now too:
select rating
Wanna post a correction for this tab? Suggest correction