Oops, an error
Loading. Please wait.

Too Many People tab

20,538 views 21 this week
2 commentsread comments
1 2 3 4 5
x 6
add to favorites
×
Save as Personal and add changes to this tab that will be seen only by you. Learn more ›
×
You can save this tab as Personal to edit and correct it or add notes. All changes will be seen only by you. Learn more »
launch autoscroll
font size
0
reset
how to read this tab
guitar tuner
edit
Autoscroll
slow
fast
+/-
esc
set tempo
stop
Author
--------------------------------------------------------
   
       PAUL McCARTNEY - TOO MANY PEOPLE. From RAM album.
                        Released 17th April 1971.

--------------------------------------------------------

       Tabbed by:PJVillanueva




Piece of cake!
Ooooh

Too many people going underground
Too many reaching for a piece of cake
Too many people pulled and pushed around
Too many waiting for that lucky break

That was your first mistake
You took your lucky break and broke it in two
Now what can be done for you
You broke it in two

Too many people sharing party lines
Too many people never sleeping late
Too many people paying parking fines
Too many hungry people losing weight

That was your first mistake
You yook your lucky break and broke it in two
Now what can be done for you
You broke it in two
Ooooh

Too many people preaching practices
Don't let them tell you what you wanna be
Too many people holding back, this is
Crazy and maybe it's not like me

That was your last mistake
I find my love awake and waiting to be
Now what can be done for you
She's waiting for me, yeah



    The Intro is played in standard tuning, but the rythm guitar 
    is played with E string tuned to D.



  Hold G note with ring finger and mute A string
  G                 G7                C                 Gadd9+5  
e|-------- -------- -------- --------|-------- -------- -------- --------|
B|0---0----0---0----0---0----0---0---|1---1----1---1---------------------|
G|0---0----0---0----0---0----0---0---|0---0----0---0----2---2----2---2---|
D|0---0----0---0----3---3----3---3---|2---2----2---2----1---1----1---1---|
A|-----------------------------------|-----------------------------------|
E|3---3----3---3----3---3----3---3---|3---3----3---3----3---3----3---3---|
                    Piece        cake!
                        of


  G                                   C                 Gadd9+5  
e|-------- -------- -------- --------|-------- -------- -------- --------|
B|0---0----0---0----0---0----0---0---|1---1----1---1---------------------|
G|0---0----0---0----0---0----0---0---|0---0----0---0----2---2----2---2---|
D|0---0----0---0----3---3----3---3---|2---2----2---2----1---1----1---1---|
A|-----------------------------------|-----------------------------------|
E|3---3----3---3----3---3----3---3---|3---3----3---3----3---3----3---3---|
                                               Oooooooooooooooooooooooooo
e|-------- -------- -------- --------|-------- -------- -------- --------|
B|8----------------------------------|-----------------------------------|
G|-----------------------------------|-----------------------------------|
D|5----------------------------------|-----------------------------------|
A|-----------------------------------|-----------------------------------|
D|-----------------------------------|-----------------------------------|
  .......................................................................



  G                                   Gadd9+5  
e|-------- -------- -------- ----3---|-------- -------- -------- ----3---|
B|0---0----0---0----0---0----0---0---|-------------------------------0---|
G|0---0----0---0----0---0----0---0---|2---2----2---2----2---2----2---2---|
D|0---0----0---0----0---0----0-------|1---1----1---1----1---1----1-------|
A|-----------------------------------|-----------------------------------|
E|3---3----3---3----3---3----3-------|3---3----3---3----3---3----3-------|
  oooooooooooooohhh                                ooooooooooooh
e|-------- -------- -------- --------|-------- -------- -------- --------|
B|-----------------------------------|-----------------------------------|
G|-----------------------------------|-----------------------------------|
D|-----------------------------------|-----------------------------------|
A|---------------------------2---5---|6----------------------------------|
D|-------------0--------5------------|-----------------------------------|




  G                                   Gadd9+5  
e|-------- -------- -------- ----3---|-------- -------- -------- --------|
B|0---0----0---0----0---0----0---0---|-----------------------------------|
G|0---0----0---0----0---0----0---0---|2---2----2---2----2---2----2---2---|
D|0---0----0---0----0---0----0-------|1---1----1---1----1---1----1---1---|
A|-----------------------------------|-----------------------------------|
E|3---3----3---3----3---3----3-------|3---3----3---3----3---3----3---3---|
                                          oooooooooooooooooooooooooooohhh
e|-------- -------- -------- --------|-------- -------- -------- --------|
B|-----------------------------------|-----------------------------------|
G|-----------------------------------|-----------------------------------|
D|-----------------------------------|-----------------------------------|
A|---------------------------2---5---|6----------------------------------|
D|-------------0--------5------------|-----------------------------------|




  G
e|3------- ----3--- 3------- --------|3---3--- ----3--- 3------- --------|
B|0------------0----0----------------|0---0--------0----0----------------|
G|0------------0----0----------------|0---0--------0----0----------------|
D|0------------0----0----------------|0---0--------0----0----------------|
A|2------------2----2----------------|2---2--------2----2----------------|
E|3------------3----3----------------|3---3--------3----3----------------|

e|7------- ----7--- 7------- --------|7---7--- ----7--- 7------- --------|
B|8------------8----8----------------|8---8--------8----8----------------|
G|7------------7----7----------------|7---7--------7----7----------------|
D|0------------0----0----------------|0---0--------0----0----------------|
A|-----------------------------------|-----------------------------------|
D|-----------------------------------|-----------------------------------|



  00:27  
  F                 C                 D                 G
e|1---1--- 1---1--- 0---0--- 0---0---|-------- -------- -------- --------|
B|1---1----1---1----1---1----1---1---|3---3----3---3----0---0----0---0---|
G|2---2----2---2----0---0----0---0---|2---2----2---2----0---0----0---0---|
D|3---3----3---3----2---2----2---2---|0---0----0---0----0---0----0---0---|
A|3---3----3---3----3---3----3---3---|0---0----0---0---------------------|
D|3---3----3---3---------------------|0---0----0---0----5---5----5---5---|
 (T)  Too  many     people            going        underground



  F                 C                 D                 G
e|1---1--- 1---1--- 0---0--- 0---0---|-------- -------- -------- --------|
B|1---1----1---1----1---1----1---1---|3---3----3---0----0-0-0----0---0---|
G|2---2----2---2----0---0----0---0---|2---2----2---0----0-0-0----0---0---|
D|3---3----3---3----2---2----2---2---|0---0----0---0----0-0-0----0---0---|
A|3---3----3---3----3---3----3---3---|0---0----0-------------------------|
D|3---3----3---3---------------------|0---0----0---5----5-5-5----5---5---|
 (T)  Too  many     reaching for a    piece        cake
                                          of

      
  F                 C                 D                 G
e|1---1--- 1---1--- 0---0--- 0---0---|-------- -------- -------- --------|
B|1---1----1---1----1---1----1---1---|3---3----3--------0---0----0---0---|
G|2---2----2---2----0---0----0---0---|2---2----2--------0---0----0---0---|
D|3---3----3---3----2---2----2---2---|0---0----0--------0---0----0---0---|
A|3---3----3---3----3---3----3---3---|0---0----0-------------------------|
D|3---3----3---3---------------------|0---0----0--------5---5----5---5---|
 (T)  Too  many     people            pulled       pushed   around
                                          and


  F                 C                 D            G
e|1---1--- 1---1--- 0---0--- 0---0---|-------- -------- -------- --------|
B|1---1----1---1----1---1----1---1---|3---3----3---0---------------------|
G|2---2----2---2----0---0----0---0---|2---2----2---0---------------------|
D|3---3----3---3----2---2----2---2---|0---0----0---0---------------------|
A|3---3----3---3----3---3----3---3---|0---0----0-------------------------|
D|3---3----3---3---------------------|0---0----0---5---------------------|
 (T)  Too  many     waiting  for that lucky        break


  00:46
  G                 G7                C                 Gadd9+5
e|-------- -------- -------- --------|-------- -------- -------- --------|
B|0---0----0---0----0---0----0---0---|1---1----1---1---------------------|
G|0---0----0---0----0---0----0---0---|0---0----0---0----2---2----2---2---|
D|0---0----0---0----3---3----3---3---|2---2----2---2----1---1----1---1---|
A|-----------------------------------|-----------------------------------|
E|3---3----3---3----3---3----3---3---|3---3----3---3----3---3----3---3---|
      That was your first    mistake



  G                 G7                C                 Gadd9+5
e|-------- -------- -------- --------|-------- -------- -------- --------|
B|0---0----0---0----0---0----0---0---|1---1----1---1---------------------|
G|0---0----0---0----0---0----0---0---|0---0----0---0----2---2----2---2---|
D|0---0----0---0----3---3----3---3---|2---2----2---2----1---1----1---1---|
A|-----------------------------------|-----------------------------------|
E|3---3----3---3----3---3----3---3---|3---3----3---3----3---3----3---3---|
      You  took     lucky        break         and broke    it   in  two
               your                                 
e|-------- -------- -------- --------|-------- -------- -------- --------|
B|8----------------------------------|-----------------------------------|
G|-----------------------------------|-----------------------------------|
D|5----------------------------------|-----------------------------------|
A|-----------------------------------|-----------------------------------|
D|-----------------------------------|-----------------------------------|
  .......................................................................



  G                                   Gadd9+5
e|-------- -------- -------- ----3---|-------- -------- -------- ----3---|
B|0---0----0---0----0---0----0---0---|-------------------------------0---|
G|0---0----0---0----0---0----0---0---|2---2----2---2----2---2----2---2---|
D|0---0----0---0----0---0----0-------|1---1----1---1----1---1----1-------|
A|-----------------------------------|-----------------------------------|
E|3---3----3---3----3---3----3-------|3---3----3---3----3---3----3-------|
                                               Now what     can      be 
e|-------- -------- -------- --------|-------- -------- -------- --------|
B|-------------------------------3---|3B4--~-----------------------------|
G|---------------------------4-------|-----------------------------------|
D|----------------------5------------|-----------------------------------|
A|-------------3/5-------------------|-----------------------------------|
E|-----------------------------------|-----------------------------------|




  G                                   Gadd9+5
e|-------- -------- -------- ----3---|-------- -------- -------- --------|
B|0---0----0---0----0---0----0---0---|-----------------------------------|
G|0---0----0---0----0---0----0---0---|2---2----2---2----2---2----2---2---|
D|0---0----0---0----0---0----0-------|1---1----1---1----1---1----1---1---|
A|-----------------------------------|-----------------------------------|
E|3---3----3---3----3---3----3-------|3---3----3---3----3---3----3---3---|
  done         for  you                        you broke    it   in  two 
e|-------- -------- -------- --------|-------- -------- -------- --------|
B|-------------------------------3---|3B4--~-----------------------------|
G|---------------------------4-------|-----------------------------------|
D|----------------------5------------|-----------------------------------|
A|-------------3/5-------------------|-----------------------------------|
E|-----------------------------------|-----------------------------------|
          



  G
e|3------- ----3--- 3------- --------|3---3--- ----3--- 3------- --------|
B|0------------0----0----------------|0---0--------0----0----------------|
G|0------------0----0----------------|0---0--------0----0----------------|
D|0------------0----0----------------|0---0--------0----0----------------|
A|2------------2----2----------------|2---2--------2----2----------------|
E|3------------3----3----------------|3---3--------3----3----------------|

e|7------- ----7--- 7------- --------|7---7--- ----7--- 7------- --------|
B|8------------8----8----------------|8---8--------8----8----------------|
G|7------------7----7----------------|7---7--------7----7----------------|
D|0------------0----0----------------|0---0--------0----0----------------|
A|-----------------------------------|-----------------------------------|
D|-----------------------------------|-----------------------------------|     

e|-------- -------- -------- --------|-------- -------- -------- --------|
B|-----------------------------------|-----------------------------------|
G|-----------------------------------|-----------------------------------|
D|-----------------------------------|------------------7----------------|
A|-----------------------------------|-----------------------------------|
E|-----------------------------------|-----------------------------------|



  01:12

e|1---1--- 1---1--- 0---0--- 0---0---|-------- -------- -------- --------|
B|1---1----1---1----1---1----1---1---|3---3----3--------0---0----0---0---|
G|2---2----2---2----0---0----0---0---|2---2----2--------0---0----0---0---|
D|3---3----3---3----2---2----2---2---|0---0----0--------0---0----0---0---|
A|3---3----3---3----3---3----3---3---|0---0----0-------------------------|
D|3---3----3---3---------------------|0---0----0--------5---5----5---5---|
 (T)  Too  many     people            sharing      party         lines
e|-------- -------- -------- --------|-------- -------- -------- --------|
B|-----------------------------------|-----RP------8----\----------------|
G|----------------------5----7---7B9-|----975----------------------------|
D|---------5/7-B-8-------------------|---------7---------------------7---|
A|-----------------------------------|-----------------------------------|
E|-----------------------------------|-----------------------------------|





e|1---1--- 1---1--- 0---0--- 0---0---|-------- -------- -------- --------|
B|1---1----1---1----1---1----1---1---|3---3----3---3----0---0----0---0---|
G|2---2----2---2----0---0----0---0---|2---2----2---2----0---0----0---0---|
D|3---3----3---3----2---2----2---2---|0---0----0---0----0---0----0---0---|
A|3---3----3---3----3---3----3---3---|0---0----0---0---------------------|
D|3---3----3---3---------------------|0---0----0---0----5---5----5---5---|
      Too  many     people   never    sleeping     late 
e|-------- -------- -------- --------|-------- -------- -------- --------|
B|-----------------------------------|-----------------------------------|
G|5----------------------------------|-----------------------------------|
D|-----------------------------------|-----------------------------------|
A|-----------------------------------|-----------------------------------|
E|-----------------------------------|-----------------------------------|

                                          

      

e|1---1--- 1---1--- 0---0--- 0---0---|-------- -------- -------- --------|
B|1---1----1---1----1---1----1---1---|3---3----3--------0---0----0---0---|
G|2---2----2---2----0---0----0---0---|2---2----2--------0---0----0---0---|
D|3---3----3---3----2---2----2---2---|0---0----0--------0---0----0---0---|
A|3---3----3---3----3---3----3---3---|0---0----0-------------------------|
D|3---3----3---3---------------------|0---0----0--------5---5----5---5---|
      Too  many     people            paying       parking       fines
                                          



e|1---1--- 1---1--- 0---0--- 0---0---|-------- -------- -------- --------|
B|1---1----1---1----1---1----1---1---|3---3----3---0---------------------|
G|2---2----2---2----0---0----0---0---|2---2----2---0---------------------|
D|3---3----3---3----2---2----2---2---|0---0----0---0---------------------|
A|3---3----3---3----3---3----3---3---|0---0----0-------------------------|
D|3---3----3---3---------------------|0---0----0---5---------------------|           
      Too  many     hungry people     losing       weight


  01:32

e|-------- -------- -------- --------|-------- -------- -------- --------|
B|0---0----0---0----0---0----0---0---|1---1----1---1---------------------|
G|0---0----0---0----0---0----0---0---|0---0----0---0----2---2----2---2---|
D|0---0----0---0----3---3----3---3---|2---2----2---2----1---1----1---1---|
A|-----------------------------------|-----------------------------------|
E|3---3----3---3----3---3----3---3---|3---3----3---3----3---3----3---3---|
      That was your first    mistake




e|-------- -------- -------- --------|-------- -------- -------- --------|
B|0---0----0---0----0---0----0---0---|1---1----1---1---------------------|
G|0---0----0---0----0---0----0---0---|0---0----0---0----2---2----2---2---|
D|0---0----0---0----3---3----3---3---|2---2----2---2----1---1----1---1---|
A|-----------------------------------|-----------------------------------|
E|3---3----3---3----3---3----3---3---|3---3----3---3----3---3----3---3---|
      You  took     lucky        break         and broke    it   in  two
               your                                 
e|-------- -------- -------- --------|-------- -------- -------- --------|
B|8----------------------------------|-----------------------------------|
G|-----------------------------------|-----------------------------------|
D|5----------------------------------|-----------------------------------|
A|-----------------------------------|-----------------------------------|
D|-----------------------------------|-----------------------------------|
  .......................................................................




e|-------- -------- -------- ----3---|-------- -------- -------- ----3---|
B|0---0----0---0----0---0----0---0---|-------------------------------0---|
G|0---0----0---0----0---0----0---0---|2---2----2---2----2---2----2---2---|
D|0---0----0---0----0---0----0-------|1---1----1---1----1---1----1-------|
A|-----------------------------------|-----------------------------------|
E|3---3----3---3----3---3----3-------|3---3----3---3----3---3----3-------|
                                               Now what     can      be 
e|-------- -------- -------- --------|-------- -------- -------- --------|
B|-----------------------------------|-----------------------------------|
G|-----------------------------------|-----------------------------------|
D|-----------------------------------|-----------------------------------|
A|---------------------------2---5---|6--~-------------------------------|
D|-------------0--------5------------|-----------------------------------|   



                                     (Index barred chord)
                                      Gadd9+5sus4
e|-------- -------- -------- ----3---|3---3--- 3---3--- 3------- 3---3---|
B|0---0----0---0----0---0----0---0---|1---1----1---1----1--------1---1---|
G|0---0----0---0----0---0----0---0---|2---2----2---2----2--------2---2---|
D|0---0----0---0----0---0----0-------|1---1----1---1----1--------1---1---|
A|-----------------------------------|-----------------------------------|
E|3---3----3---3----3---3----3-------|3---3----3---3----3--------3---3---|    
  done         for  you                        you broke    it   in  two
e|-------- -------- -------- --------|-------- -------- -------- --------|
B|-----------------------------------|-----------------------------------|
G|-----------------------------------|-----------------------------------|
D|-----------------------------------|-----------------------------------|
A|---------------------------2---5---|6--~-------------------------------|
D|-------------0--------5------------|-----------------------------------|  
 

          


e|3------- ----3--- 3------- --------|3---3--- ----3--- 3------- --------|
B|0------------0----0----------------|0---0--------0----0----------------|
G|0------------0----0----------------|0---0--------0----0----------------|
D|0------------0----0----------------|0---0--------0----0----------------|
A|2------------2----2----------------|2---2--------2----2----------------|
E|3------------3----3----------------|3---3--------3----3----------------|
                             Oooooohh
e|7------- ----7--- 7------- --------|7---7--- ----7--- 7------- --------|
B|8------------8----8----------------|8---8--------8----8----------------|
G|7------------7----7----------------|7---7--------7----7----------------|
D|0------------0----0----------------|0---0--------0----0----------------|
A|-----------------------------------|-----------------------------------|
D|-----------------------------------|-----------------------------------|



  01:57
  Am                                  Em
e|0---0--- 0---0--- 0---0--- 0---0---|0---0--- 0---0--- 0---0--- 0---0---|
B|1---1----1---1----1---1----1---1---|0---0----0---0----0---0----0---0---|
G|2---2----2---2----2---2----2---2---|0---0----0---0----0---0----0---0---|
D|2---2----2---2----2---2----2---2---|2---2----2---2----2---2----2---2---|
A|0---0----0---0----0---0----0---0---|2---2----2---2----2---2----2---2---|
D|-----------------------------------|2---2----2---2----2---2----2---2---|

e|-------- -------- -------- --------|-------- -------- -------- --------|
B|-------------------------------5/8-|------------12B13-R-12P8-----------|
G|---------5---7----7B9R7P5----------|----9-------------------9--7---9---|
D|----7----------------------7-------|-----------------------------------|
A|-----------------------------------|-----------------------------------|
E|-----------------------------------|-----------------------------------|




  G                                   D
e|3---3--- 3---3--- 3---3--- 3---3---|2---2--- 2---2--- 2---2--- 2---2---|
B|0---0----0---0----0---0----0---0---|3---3----3---3----3---3----3---3---|
G|0---0----0---0----0---0----0---0---|2---2----2---2----2---2----2---2---|
D|0---0----0---0----0---0----0---0---|4---4----4---4----4---4----4---4---|
A|-----------------------------------|0---0----0---0----0---0----0---0---|
E|5---5----5---5----5---5----5---5---|0---0----0---0----0---0----0---0---|

e|-------- -------- --B---R- --------|----10-- ----10-- -------- --------|
B|8--------10B12----10121210-8-------|-----------------------------------|
G|-------------------------------9--B|11--------------------9-B-11--\----|
D|-----------------------------------|-----------------------------------|
A|-----------------------------------|-----------------------------------|
E|-----------------------------------|-----------------------------------|





e|0---0--- 0---0--- 0---0--- 0---0---|0---0--- 0---0--- 0---0--- 0---0---|
B|1---1----1---1----1---1----1---1---|0---0----0---0----0---0----0---0---|
G|2---2----2---2----2---2----2---2---|0---0----0---0----0---0----0---0---|
D|2---2----2---2----2---2----2---2---|2---2----2---2----2---2----2---2---|
A|0---0----0---0----0---0----0---0---|2---2----2---2----2---2----2---2---|
D|-----------------------------------|2---2----2---2----2---2----2---2---|

e|-------- -------- -------- --------|-------- -------- -------- --------|
B|-------------------------------8---|------------12B13R12-P-8-----------|
G|---------5---7----7B9R7P5----------|----9-------------------9--7---9---|
D|5/7------------------------7-------|-----------------------------------|
A|-----------------------------------|-----------------------------------|
E|-----------------------------------|-----------------------------------|


                                                                
                                                      
                                               
e|3---3--- 3---3--- 3---3--- 3---3---|2---2--- 2---2--- 2---2--- 2---2---|
B|0---0----0---0----0---0----0---0---|3---3----3---3----3---3----3---3---|
G|0---0----0---0----0---0----0---0---|2---2----2---2----2---2----2---2---|
D|0---0----0---0----0---0----0---0---|4---4----4---4----4---4----4---4---|
A|-----------------------------------|0---0----0---0----0---0----0---0---|
E|5---5----5---5----5---5----5---5---|0---0----0---0----0---0----0---0---|

e|-------- --B---B-P--B-R--- --------|----10-- -------- ----10-- --------|
B|8--10B11-101110118101110---8-------|-----------------------------------|
G|-------------------------------9--B|11-----------9--B-11-----------9--B|
D|-----------------------------------|-----------------------------------|
A|-----------------------------------|-----------------------------------|
E|-----------------------------------|-----------------------------------|



                             xxx xxx

e|3---3--- 3---3--- 3---3--- 3---3---|
B|0---0----0---0----0---0----0---0---|
G|0---0----0---0----0---0----0---0---|
D|0---0----0---0----0---0----0---0---|
A|-----------------------------------|
E|5---5----5---5----5---5----5---5---|

e|-------- -------- -------- --------|
B|-----------------------------------|
G|12--~------------------------------|
D|-----------------------------------|
A|-----------------------------------|
E|-----------------------------------|             



  02:19

e|1---1--- 1---1--- 0---0--- 0---0---|-------- -------- -------- --------|
B|1---1----1---1----1---1----1---1---|3---3----3--------0---0----0---0---|
G|2---2----2---2----0---0----0---0---|2---2----2--------0---0----0---0---|
D|3---3----3---3----2---2----2---2---|0---0----0--------0---0----0---0---|
A|3---3----3---3----3---3----3---3---|0---0----0-------------------------|
D|3---3----3---3---------------------|0---0----0--------5---5----5---5---|
 (T)  Too  many     people            preaching    practices
e|-------- -------- -------- --------|-------- -------- -------- --------|
B|-----------------------------------|-----------------------------------|
G|-----------------------------------|------------------5B7--~-----------|
D|-----------------------------------|-----------------------------------|
A|-----------------------------------|-----------------------------------|
E|-----------------------------------|-----------------------------------|





e|1---1--- 1---1--- 0---0--- 0---0---|-------- -------- -------- --------|
B|1---1----1---1----1---1----1---1---|3---3----3---3----0---0----0---0---|
G|2---2----2---2----0---0----0---0---|2---2----2---2----0---0----0---0---|
D|3---3----3---3----2---2----2---2---|0---0----0---0----0---0----0---0---|
A|3---3----3---3----3---3----3---3---|0---0----0---0---------------------|
D|3---3----3---3---------------------|0---0----0---0----5---5----5---5---|
      Don't    them tell     what     wanna        be
           let          you      you
e|-------- -------- -------- --------|-------- -------- ----3--- --------|
B|-----------------------------------|---------------------3--6--3-3-----|
G|\----------------------------------|------------------5B7----------5P3-|
D|-----------------------------------|-----------------------------------|
A|-----------------------------------|-----------------------------------|
E|-----------------------------------|-----------------------------------|

                                          

      

e|1---1--- 1---1--- 0---0--- 0---0---|-------- -------- -------- --------|
B|1---1----1---1----1---1----1---1---|3---3----3--------0---0----0---0---|
G|2---2----2---2----0---0----0---0---|2---2----2--------0---0----0---0---|
D|3---3----3---3----2---2----2---2---|0---0----0--------0---0----0---0---|
A|3---3----3---3----3---3----3---3---|0---0----0-------------------------|
D|3---3----3---3---------------------|0---0----0--------5---5----5---5---|
      Too  many     people            holding      back,    this is  crazy
e|-------- -------- -------- --------|-------- -------- -------- --------|
B|-----------------------------------|-----------------------------------|
G|5/7--~-----------\5----------------|----------------------5/7--7-------|
D|-----------------------------------|-----------------------------------|
A|-----------------------------------|-----------------------------------|
E|-----------------------------------|-----------------------------------|

                                          



e|1---1--- 1---1--- 0---0--- 0---0---|-------- -------- -------- --------|
B|1---1----1---1----1---1----1---1---|3---3----3---0---------------------|
G|2---2----2---2----0---0----0---0---|2---2----2---0---------------------|
D|3---3----3---3----2---2----2---2---|0---0----0---0---------------------|
A|3---3----3---3----3---3----3---3---|0---0----0-------------------------|
D|3---3----3---3---------------------|0---0----0---5---------------------|           
           and maybe             it's not like     me
e|-------- -------- -------- --------|-------- -------- -------- --------|
B|-----------------------------------|-----------------------------------|
G|---------------------5/7\5---3-3B5-|------------/-7------2H4P2P0-------|
D|-----------------------------------|------------------------------2----|
A|-----------------------------------|-----------------------------------|
E|-----------------------------------|-----------------------------------|



  01:32

e|-------- -------- -------- --------|-------- -------- -------- --------|
B|0---0----0---0----0---0----0---0---|1---1----1---1---------------------|
G|0---0----0---0----0---0----0---0---|0---0----0---0----2---2----2---2---|
D|0---0----0---0----3---3----3---3---|2---2----2---2----1---1----1---1---|
A|-----------------------------------|-----------------------------------|
E|3---3----3---3----3---3----3---3---|3---3----3---3----3---3----3---3---|
      That was your last     mistake
e|-------- -------- -------- --------|-------- -------- -------- --------|
B|2----------------------------------|-----------------------------------|
G|-----------0----------0------0-----|-----------------------------------|
D|-----------------------------------|-----------------------------------|
A|-----------------------------------|-----------------------------------|
E|-----------------------------------|-----------------------------------|





e|-------- -------- -------- --------|-------- -------- -------- --------|
B|0---0----0---0----0---0----0---0---|1---1----1---1---------------------|
G|0---0----0---0----0---0----0---0---|0---0----0---0----2---2----2---2---|
D|0---0----0---0----3---3----3---3---|2---2----2---2----1---1----1---1---|
A|-----------------------------------|-----------------------------------|
E|3---3----3---3----3---3----3---3---|3---3----3---3----3---3----3---3---|
      I    find     love     awake             and waiting       to  be
               my                                 
e|-------- -------- -------- --------|-------- -------- -------- --------|
B|8----------------------------------|-----------------------------------|
G|-----------------------------------|-----------------------------------|
D|5----------------------------------|-----------------------------------|
A|-----------------------------------|-----------------------------------|
D|-----------------------------------|-----------------------------------|
  .......................................................................


                                     (Index barred chord)

e|-------- -------- -------- ----3---|-------- -------- -------- ----3---|
B|0---0----0---0----0---0----0---0---|1---1----1---1----1---1----1---1---|
G|0---0----0---0----0---0----0---0---|2---2----2---2----2---2----2---2---|
D|0---0----0---0----0---0----0-------|1---1----1---1----1---1----1-------|
A|-----------------------------------|-----------------------------------|
E|3---3----3---3----3---3----3-------|3---3----3---3----3---3----3-------|
                                               Now what     can      be 
e|-------- -------- -------- --------|-------- -------- -------- --------|
B|-------------------------------3---|3B4--~-----------------------------|
G|---------------------------4-------|-----------------------------------|
D|----------------------5------------|-----------------------------------|
A|-------------3/5-------------------|-----------------------------------|
E|-----------------------------------|-----------------------------------|

e|-------- -------- -------- --------|-------- -------- -------- --------|
B|-----------------------------------|-----------------------------------|
G|-----------------------------------|-----------------------------------|
D|-----------------------------------|-----------------------------------|
A|5----------------------------------|-----------------------------------|
E|3----------------------------------|-----------------------------------|





e|-------- -------- -------- ----3---|3---3--- 3---3--- 3---3--- 3---3---|
B|0---0----0---0----0---0----0---0---|0---0----0---0----0---0----0---0---|
G|0---0----0---0----0---0----0---0---|2---2----2---2----2---2----2---2---|
D|0---0----0---0----0---0----0-------|1---1----1---1----1---1----1---1---|
A|-----------------------------------|-----------------------------------|
E|3---3----3---3----3---3----3-------|3---3----3---3----3---3----3---3---|
  done         for  you                        she's             for
                                                   waiting
e|-------- -------- -------- --------|-------- -------- -------- --------|
B|-------------------------------3---|3B4--~-----------------------------|
G|---------------------------4-------|-----------------------------------|
D|----------------------5------------|-----------------------------------|
A|-------------3/5-------------------|-----------------------------------|
E|-----------------------------------|-----------------------------------|
 
e|-------- -------- -------- --------|-------- -------- -------- --------|
B|-----------------------------------|-----------------------------------|
G|-----------------------------------|-----------------------------------|
D|-----------------------------------|-----------------------------------|
A|5----------------------------------|-----------------------------------|
E|3----------------------------------|-----------------------------------|


          
                                                            x    xxx xxx

e|3------- ----3--- 3------- --------|3---3--- ----3--- 3------- --------|
B|0------------0----0----------------|0---0--------0----0----------------|
G|0------------0----0----------------|0---0--------0----0----------------|
D|0------------0----0----------------|0---0--------0----0----------------|
A|2------------2----2----------------|2---2--------2----2----------------|
E|3------------3----3----------------|3---3--------3----3----------------|
  me,          yeah              
e|7------- ----7--- 7------- --------|7---7--- ----7--- 7------- --------|
B|8------------8----8----------------|8---8--------8----8----------------|
G|7------------7----7----------------|7---7--------7----7----------------|
D|0------------0----0----------------|0---0--------0----0----------------|
A|-----------------------------------|-----------------------------------|
D|-----------------------------------|-----------------------------------|

e|-------- -------- -------- --------|-------- -------- -------- --------|
B|-----------------------------------|-----------------------------------|
G|-----------------------------------|-----------------------------------|
D|-----------------------------------|-----------------------------------|
A|5------------5----5----------------|5---5--------5----5----------------|
E|3------------3----3----------------|3---3--------3----3----------------|



  03:05
  A                                   Em
e|0---0--- 0-0-0--- 0-0-0--- 0---0-0-|0---0--- 0---0--- 0---0--- 0---0---|
B|2---2----2-2-2----2-2-2----2---2-2-|0---0----0---0----0---0----0---0---|
G|2---2----2-2-2----2-2-2----2---2-2-|0---0----0---0----0---0----0---0---|
D|2---2----2-2-2----2-2-2----2---2-2-|2---2----2---2----2---2----2---2---|
A|0---0----0-0-0----0-0-0----0---0-0-|2---2----2---2----2---2----2---2---|
D|-----------------------------------|2---2----2---2----2---2----2---2---|

e|-------- -------- -------- --------|-------- -------- -------- --------|
B|-----------------------------------|------------------8---8------------|
G|-----------------------------------|5------------------------------9---|
D|----2------2------2----------------|5----------------------------------|
A|3B4----3B4---3B4----4-----/7-------|---------7-------------------------|
E|-----------------------------------|-----------------------------------|




  G                                   D
e|3------- 3---3--- 3---3--- 3---3-3-|2---2--- 2---2-2- 2-2-2--- 2---2---|
B|0--------0---0----0---0----0---0-0-|3---3----3---3-3--3-3-3----3---3---|
G|0--------0---0----0---0----0---0-0-|2---2----2---2-2--2-2-2----2---2---|
D|0--------0---0----0---0----0---0-0-|4---4----4---4-4--4-4-4----4---4---|
A|-----------------------------------|0---0----0---0-0--0-0-0----0---0---|
D|5--------5---5----5---5----5---5-5-|0---0----0---0-0--0-0-0----0---0---|

e|-B-R-P-- -------- -------- -R------|-------- -------- -------- --------|
B1012108-8---10-8---10B12---1210-8---|10----~----------------------------|
G|------9----------------------------|-----------------------------------|
D|-----------------------------------|-----------------------------------|
A|-----------------------------------|-----------------------------------|
E|-----------------------------------|-----------------------------------|




  Bb                                  F
e|1---1--- 1---1--- 1---1--- 1---1---|1---1--- 1---1--- 1---1--- 1---1---|
B|3---3----3---3----3---3----3---3---|1---1----1---1----1---1----1---1---|
G|3---3----3---3----3---3----3---3---|2---2----2---2----2---2----2---2---|
D|3---3----3---3----3---3----3---3---|3---3----3---3----3---3----3---3---|
A|1---1----1---1----1---1----1---1---|3---3----3---3----3---3----3---3---|
D|-----------------------------------|3---3----3---3----3---3----3---3---|
                                     (T)
e|-------- -------- -------- --6-----|------6- -------- -------- --------|
B|--B-11-------------------------9P6-|--6--------9P6----6--------9-B-10--|
G|------------------6---8B10---------|9--------------9-------------------|
D|-------------6/8-------------------|-----------------------------------|
A|-----------------------------------|-----------------------------------|
E|-----------------------------------|-----------------------------------|




  Ab                                  Eb
e|4---4--- 4---4--- 4---4--- 4---4---|3---3--- 3---3--- 3-3-3--- 3---3---|
B|4---4----4---4----4---4----4---4---|4---4----4---4----4-4-4----4---4---|
G|5---5----5---5----5---5----5---5---|3---3----3---3----3-3-3----3---3---|
D|6---6----6---6----6---6----6---6---|5---5----5---5----5-5-5----5---5---|
A|6---6----6---6----6---6----6---6---|6---6----6---6----6-6-6----6---6---|
D|6---6----6---6----6---6----6---6---|-----------------------------------|

e|6-6----- 6------6 ------6- --------|6------- -------- -------- --------|
B|-----9B10---9B10----9B10---9B10----|---------9B10-----6--------6---6---|
G|-----------------------------------|-----------------------------------|
D|-----------------------------------|-----------------------------------|
A|-----------------------------------|-----------------------------------|
E|-----------------------------------|-----------------------------------|




  Cm                                  Gm
e|3---3--- 3---3--- 3---3--- 3---3---|3---3--- 3---3--- 3-3-3--- 3---3---|
B|4---4----4---4----4---4----4---4---|3---3----3---3----3-3-3----3---3---|
G|5---5----5---5----5---5----5---5---|3---3----3---3----3-3-3----3---3---|
D|5---5----5---5----5---5----5---5---|5---5----5---5----5-5-5----5---5---|
A|3---3----3---3----3---3----3---3---|5---5----5---5----5-5-5----5---5---|
D|-----------------------------------|5---5----5---5----5-5-5----5---5---|

e|-------- ------8- -------- --8-----|8------- ---11--- 8-----8- --------|
B|-------------8-----11P8-11B12--11--|8--11P8----8-------11------11--8---|
G|----8---10B12----------------------|---------11-----------------------11
D8/10--------------------------------|-----------------------------------|
A|-----------------------------------|-----------------------------------|
E|-----------------------------------|-----------------------------------|

       (The following 6 measures are written one by one in order to 
        give room for the many notes in this part of Dave Spinoza's 
        solo.)

        03:29                             
        Bb                                                                 
      e|1-----1----- 1--1--1----- 1-----1----- 1-----1-----|
      B|3-----3------3--3--3------3-----3------3-----3-----|
      G|3-----3------3--3--3------3-----3------3-----3-----|
      D|3-----3------3--3--3------3-----3------3-----3-----|
      A|1-----1------1--1--1------1-----1------1-----1-----|
      E|---------------------------------------------------|

      e|-----8------ ------------ ------------ ----8-------|
      B|8--------11--8---------8----P------------8--11-8---|
      G|-----------------11-------1110-8--8H10-11--------11|
      D|--------------------------------10-----------------|
      A|---------------------------------------------------|
      E|---------------------------------------------------|



       03:32
        F                         Cm
      e|1-----1----- 1-----1----- 3-----3----- 3-----3-----|
      B|1-----1------1-----1------4-----4------4-----4-----|
      G|2-----2------2-----2------5-----5------5-----5-----|
      D|3-----3------3-----3------5-----5------5-----5-----|
      A|3-----3------3-----3------3-----3------3-----3-----|
      D|3-----3------3-----3-------------------------------|
        T                       
      e|------------ ------------ ------------ ------------|
      B|----P-----------8--11--8----8--P----------------8--|
      G|--1110P8--8---11----------11-1110P8--8-11B12-----11|
      D|--------10-------------------------10--------------|
      A|---------------------------------------------------|
      E|---------------------------------------------------|



        03:34
        Eb                        G
      e|------------ ------------ 3-----3----- 3-----3-----|
      B|--------------------------3-----3------3-----3-----|
      G|0-----0------0-----0------4-----4------4-----4-----|
      D|1-----1------1-----1------5-----5------5-----5-----|
      A|1-----1------1-----1------5-----5------5-----5-----|
      D|1-----1------1-----1------5-----5------5-----5-----|

      e|--8--------- ------------ ------------ ------------|
      B|8----------8------8-----8---P---8--P---8--P---8--P-|
      G|-----11B12---11B12-11B12--1110P8-1110P8-1110P8-1110|
      D|---------------------------------------------------|
      A|---------------------------------------------------|
      E|---------------------------------------------------|



        03:36
        F                         C
      e|1-----1----- 1-----1----- 3-----3----- 3-----3-----|
      B|1-----1------1-----1------5-----5------5-----5-----|
      G|2-----2------2-----2------5-----5------5-----5-----|
      D|3-----3------3-----3------5-----5------5-----5-----|
      A|3-----3------3-----3------3-----3------3-----3-----|
      D|3-----3------3-----3-------------------------------|
        T                         
      e|------------ 8----------- ------------ 8-----------|
      B|-----------8--11P8-8---------------8---------------|
      G|---8H10H11----------11P10P8---8-11-----------------|
      D|----------------------------10---------------------|
      A|---------------------------------------------------|
      E|---------------------------------------------------|



        03:39

      e|------------ ------------ ------------ ------------|
      B|---------------------------------------------------|
      G|---------------------------------------------------|
      D|---------------------------------------------------|
      A|---------------------------------------------------|
      D|---------------------------------------------------|
                                           Oooooooooooooooo
      e|------------ ------------ ------------ ------------|
      B|---------------------------------------------------|
      G|---------------------------------------------------|
      D|---------------------------------------------------|
      A|---------------------------------------------------|
      E|---------------------------------------------------|


 
        03:42                     

      e|------------ ------------ ------------ ------------|
      B|---------------------------------------------------|
      G|---------------------------------------------------|
      D|---------------------------------------------------|
      A|---------------------------------------------------|
      D|---------------------------------------------------|
        ooooooooohhh
      e|------------ ------------ ------8--8-- ---8--8-----|
      B|--------------------------11B11--------------------|
      G|---------------------------------------------------|
      D|---------------------------------------------------|
      A|---------------------------------------------------|
      E|---------------------------------------------------|



  03:44

  C7    C7sus2      C     C7sus2   C        C7sus4      C     C7sus2
e|-------- -------- -------- --------|-------- -------- -------- --------|
B|5-----3-----------5-----3--------5-|------6-----------5-----3----------|
G|--3--------3--------3-------3------|--3--------3--------3--------3-----|
D|----5--------5--------5--------5---|----5--------5--------5--------5---|
A|3-----------------3----------------|3-----------------3----------------|
D|---------5-----------------5-------|---------5-----------------5-------|

e|--B-8-8- --8-8--- --B-8-8- --8-8---|--B-8-8- --8-8--- --B-8-8- --8-8---|
B|1213--------------1113-------------|1113--------------1113-------------|
G|-----------------------------------|-----------------------------------|
D|-----------------------------------|-----------------------------------|
A|-----------------------------------|-----------------------------------|
E|-----------------------------------|-----------------------------------|

e|-------- -------- -------- --------|-------- -------- --B----- --B-----|
B|------------P-P-H-/---------11--12-|--11--------------111211-8-111211-8|
G|----------1110881012----------12---|-----------------------------------|
D|--------------10-------------------|-----------------------------------|
A|-----------------------------------|-----------------------------------|
E|-----------------------------------|-----------------------------------|



  

e|-------- -------- -------- --------|-------- -------- -------- --------|
B|5-----3-----------5-----3--------5-|------6-----------5-----3--------5-|
G|--3--------3--------3-------3------|--3--------3--------3--------3-----|
D|----5--------5--------5--------5---|----5--------5--------5--------5---|
A|3-----------------3----------------|3-----------------3----------------|
D|---------5-----------------5-------|---------5-----------------5-------|

e|--B-8---B--8---B- 8---R-8- --B--8--R--8----- 8---R--8 --B--8-- R--8---B|
B|1113--1113---1113---1311---1113---1311--1311---1311---1113---1311---1113
G|-----------------------------------|-----------------------------------|
D|-----------------------------------|-----------------------------------|
A|-----------------------------------|-----------------------------------|
E|-----------------------------------|-----------------------------------|

e|-------- -------- -------- --B-8--P|-------- -------- -------- --------|
B|11B12---------------11--8--1112-118|-----------------------------------|
G|-----------------------------------|11P10-------------8B9--------------|
D|-----------------------------------|----------------------10-----------|
A|-----------------------------------|-----------------------------------|
E|-----------------------------------|-----------------------------------|



  03:53

e|-------- -------- -------- --------|-------- -------- -------- --------|
B|------6-----------5-----3--------5-|------6-----------5-----3--------5-|
G|--3--------3--------3-------3------|--3--------3--------3--------3-----|
D|----5--------5--------5--------5---|----5--------5--------5--------5---|
A|3-----------------3----------------|3-----------------3----------------|
D|---------5-----------------5-------|---------5-----------------5-------|

e|8---R-8- -B--8---R--8---B- 8---R--8|--B--8-- R--8---B -8---B--8---R--8-|
B|--1311--1311---1311---1113---1311--|1113---1311---1311---1113---1311---|
G|-----------------------------------|-----------------------------------|
D|-----------------------------------|-----------------------------------|
A|-----------------------------------|-----------------------------------|
E|-----------------------------------|-----------------------------------|

e|-------- -------- --B--8-- -------B|--8--8-- --B--8-- 11P8--8- --8--8--|
B|-----------11--8--1112----------1112---------1112---------11-----------|
G|-----------------------------------|-----------------------------------|
D|-----------------------------------|-----------------------------------|
A|-----------------------------------|-----------------------------------|
E|-----------------------------------|-----------------------------------|



 

e|-------- -------- -------- --------|-------- -------- -------- --------|
B|------6-----------5-----3--------5-|------6-----------5-----3--------5-|
G|--3--------3--------3-------3------|--3--------3--------3--------3-----|
D|----5--------5--------5--------5---|----5--------5--------5--------5---|
A|3-----------------3----------------|3-----------------3----------------|
D|---------5-----------------5-------|---------5-----------------5-------|

e|--B-8---B--8---B- 8---R-8- --B--8--|R--8--B- 8---B--8- 8-8-8-8-8---R--8|
B|1113--1113---1113---1311---1113---1311--1113---1113--------------1311--|
G|-----------------------------------|-----------------------------------|
D|-----------------------------------|-----------------------------------|
A|-----------------------------------|-----------------------------------|
E|-----------------------------------|-----------------------------------|
                         P
e|--B--8-8 -------- 11-118-- 8-------|8------- -------- -------- --------|
B|1112---------11P8-------11--11----8|-11P8---------H----B-R-PH----------|
G|--------------------------------11-|----11P10----810-101210810-8-------|
D|-----------------------------------|-----------10----------------10--8-|
A|-----------------------------------|-----------------------------------|
E|-----------------------------------|-----------------------------------|

  ..................................Fade.................................

  04:01

e|-------- -------- -------- --------|-------- -------- -------- --------|
B|------6-----------5-----3--------5-|------6-----------5-----3-------5--|
G|--3--------3--------3-------3------|--3--------3--------3--------3-----|
D|----5--------5--------5--------5---|----5--------5--------5--------5---|
A|3-----------------3----------------|3-----------------3----------------|
D|---------5-----------------5-------|---------5-----------------5-------|

e|--B-8---B--8----8 ----8--- -8-----8|----8--- -8-----8 ----8--- 8------8|
B|1113--1113---11---11----11----11---|11----12----12----12----11----11---|
G|-----------------------------------|-----------------------------------|
D|-----------------------------------|-----------------------------------|
A|-----------------------------------|-----------------------------------|
E|-----------------------------------|-----------------------------------|

e|-------- -------- 8------- --------|-------- -------- -------- --------|
B|---------------8----11--8----B--8--|-------------------------------B-8-|
G|-H----8--10-11-------------1112----|--8--10---10---10B12----8----1112--|
D|810--------------------------------|-----------------------------------|
A|-----------------------------------|-----------------------------------|
E|-----------------------------------|-----------------------------------|

  .......................................................................



e|-------- -------- -------- --------|-------- -------- -------- --------|
B|------6-----------5-----3--------5-|-----------------------------------|
G|--3--------3--------3-------3------|-----------------------------------|
D|----5--------5--------5--------5---|-----------------------------------|
A|3-----------------3----------------|-----------------------------------|
D|---------5-----------------5-------|-----------------------------------|

e|----8--- -8-----8 ----8--- 8------8|-------- -------- -------- --------|
B|11----11----11----11----11----11---|-----------------------------------|
G|-----------------------------------|-----------------------------------|
D|-----------------------------------|-----------------------------------|
A|-----------------------------------|-----------------------------------|
E|-----------------------------------|-----------------------------------|

e|8------- -------- -------- --------|-------- -------- -------- --------|
B|--11--8----------------------------|-----------------------------------|
G|-----------------------------------|-----------------------------------|
D|-----------------------------------|-----------------------------------|
A|-----------------------------------|-----------------------------------|
E|-----------------------------------|-----------------------------------|

  ..................................





        T  Thumb
        B  Bend
        R  Release
        /  Slide up
        \  Slide down
        H  Hammer-on
        P  Pull-off
        ~  Vibrato
        +  Harmonic
        x  Mute note
        .  Play note like a dot in standard notation
        ^  Ties two notes together
        (.  Pause
     



            
            
Suggest correction
Creating personal tab
Creating personal tab
You can edit any tab online and save it as your Personal.

You can edit, replace or remove any tab part or add personal notes – all changes will be seen only by you.

Personal tabs can be accessed anytime from any device, even offline.
Learn more »
comments
print report bad tab
2 comments total.
0 reply
Sgt.Pepper15 10 Sep 03, 2007 01:59 PM

Mate, That was brilliant!

+1 reply
jrd865 16 Apr 12, 2008 12:52 PM

insane...nice work.

guest
You may want to rate the tab now too:
select rating
Wanna post a correction for this tab? Suggest correction