Oops, an error
Loading. Please wait.

Uncle Albert - Admiral Halsey bass

310 views 9 this week
no commentswrite comment
1 2 3 4 5
1 last vote to show rating
add to favorites
×
Save as Personal and add changes to this tab that will be seen only by you. Learn more ›
×
You can save this tab as Personal to edit and correct it or add notes. All changes will be seen only by you. Learn more »
launch autoscroll
font size
0
reset
guitar tuner
edit
Autoscroll
slow
fast
+/-
esc
set tempo
stop
Author
Difficulty
Uncle Albert

Verse 1 :
G|---------------------------------|---------------------------------|
D|---------------------------------|---------------------------------|
A|5-----------5---5----------------|5-----------5---5----------------|
E|---------------------------------|---------------------------------|

G|---------------------------------|---------------------------------|
D|---------------------------------|---------------------------------|
A|5-----------5---5----------------|5-----------5---5----------------|
E|---------------------------------|---------------------------------|

G|---------------------------------|---------------------------------|
D|---------------------------------|---------------------------------|
A|5-----------5---5----------------|5-----------5---5----------------|
E|---------------------------------|---------------------------------|

G|---------------------------------|---------------------------------|
D|5--------------------------------|---------------------------------|
A|----------------3-------4--------|5--------------------------------|
E|---------------------------------|---------------------------------|

Interlude :
G|---------------------------------|---------------------------------|
D|5--------------------------------|5--------------------------------|
A|----------------3----------------|----------------3----------------|
E|---------------------------------|---------------------------------|

G|---------------------------------|---------------------------------|
D|5--------------------------------|5--------------------------------|
A|----------------3----------------|----------------3-------4--------|
E|---------------------------------|---------------------------------|

G|---------------------------------|---------------------------------|
D|---------------------------------|---------------------------------|
A|5--------------------------------|5---5-------5---5----------------|
E|---------------------------------|---------------------------------|

G|---------------------------------|
D|---------------------------------|
A|5---5-------5---5----------------|
E|---------------------------------|

Verse 2 :
G|---------------------------------|---------------------------------|
D|---------------------------------|---------------------------------|
A|5---5-------5---5-------5--------|5---5-------5---5----------------|
E|---------------------------------|---------------------------------|

G|---------------------------------|---------------------------------|
D|---------------------------------|--------------------2---4---5----|
A|5---5-------5---5-------0--------|5---5-------5---5----------------|
E|---------------------------------|---------------------------------|

G|---------------------------------|---------------------------------|
D|5--------------------------------|---------------------------------|
A|----------------3-------4--------|5--------------------------------|
E|---------------------------------|---------------------------------|

Interlude :
G|---------------------------------|---------------------------------|
D|4h5------------------------------|4h5------------------------------|
A|--------------4p3----------------|--------------4p3----------------|
E|---------------------------------|---------------------------------|

G|---------------------------------|---------------------------------|
D|4h5-------------------------4----|5--------------------------------|
A|------------4---3----------------|--------4-------3-------4--------|
E|---------------------------------|---------------------------------|

G|---------------------------------|---------------------------------|
D|---------------------------------|---------------------------------|
A|5-----------5---5----------------|3-------3---5--------------------|
E|---------------------------------|---------------------------------|

Outro (Uncle Albert) :
G|---------------------------------|---------------------------------|
D|---------------------------------|---------------------------------|
A|5-----5-5-------5-----5-5--------|5-----5-5-------5-----5-5--------|
E|---------------------------------|---------------------------------|

G|---------------------------------|---------------------------------|
D|---------------------------------|---------------------------------|
A|5-----5-5-------5-----5-5--------|5-----5-5-------5-----5-5--------|
E|---------------------------------|---------------------------------|

G|---------------------------------|---------------------------------|
D|---------------------------------|------------------------2---4----|
A|5-----5-5-------5-----5-5--------|5-----5-5-------5-----5----------|
E|---------------------------------|---------------------------------|

G|---------------------------------|--------------------7-7-7--------|
D|5--------------------------------|----------------------------5/7--|
A|----------------3-------4--------|5-----------5---5----------------|
E|---------------------------------|---------------------------------|

G|---------------------------------|----------------------------5----|
D|5--------------------------------|5-----------------------5/7------|
A|----------------3----------------|----------------3----------------|
E|---------------------------------|---------------------------------|

G|----------------------------5----|---------------------------------|
D|5-----------------------5h7------|5--------------------------------|
A|----------------3----------------|----------------3-------4--------|
E|---------------------------------|---------------------------------|

G|---------------------------------|---------------------------------|
D|----------------------------12-\-|----------------------------12-\-|
A|5--------------------------------|3--------------------------------|
E|---------------------------------|---------------------------------|

Admiral Halsey

Tempo change 

Intro :
G|---------------------------------|---------------------------------|
D|---------------------------------|---------------------------------|
A|1--------------------------------|---------------------------------|
E|---------------------------------|5-------0---3-/-8-------3--------|

G|---------------------------------|---------------------------------|
D|---------------------------------|---------------------------------|
A|---------------------------------|---------------------------------|
E|5-------0---3-/-8-------3--------|5-------0---3-/-8-------3---5/7--|

G|---------------------------------|---------------------------------|
D|---------------------------------|---------------------------------|
A|7---------------7----------------|7---------------7-----------2----|
E|--------7---------------7--------|--------7---------------3--------|

Chorus :
G|---------------------------------|---------------------------------|
D|---------------------------------|---------------------------------|
A|3---------------3----------------|5---------------5---3---2---0----|
E|--------3---------------5--------|--------5------------------------|

G|---------------------------------|---------------------------------|
D|---------------------------------|---------------------------------|
A|--------5---------------5--------|----------------1---/---3--------|
E|3---------------3----------------|1---/---4------------------------|

G|---------------------------------|---------------------------------|
D|---------------------------------|---------------------------------|
A|3---------------3----------------|5---------------5---3---2---0----|
E|--------3---------------5--------|--------5------------------------|

G|---------------------------------|---------------------------------|
D|---------------------------------|---------------------------------|
A|--------5---------------5--------|3--------------------------------|
E|3---------------3----------------|---------------------------------|

Verse 1 :
G|---------------------------------|---------------------------------|
D|---------------------------------|---------------------------------|
A|---------------------------------|---------------------------------|
E|5-------0---3-/-8-------3--------|5-------0---3-/-8-------3--------|

G|---------------------------------|---------------------------------|
D|---------------------------------|---------------------------------|
A|---------------------------------|7---------------7----------------|
E|5-------0---3-/-8-------3---5/7--|--------7---------------7--------|

G|---------------------------------|
D|---------------------------------|
A|7---------------7-------2--------|
E|--------7-----------3------------|

Chorus :
G|---------------------------------|---------------------------------|
D|---------------------------------|---------------------------------|
A|3---------------3----------------|5---------------5---3---2---0----|
E|--------3---------------5--------|--------5------------------------|

G|---------------------------------|---------------------------------|
D|---------------------------------|---------------------------------|
A|--------5---------------5--------|----------------1---/---3--------|
E|3---------------3----------------|1---/---4------------------------|

G|---------------------------------|---------------------------------|
D|---------------------------------|---------------------------------|
A|3---------------3----------------|5---------------5---3---2---0----|
E|--------3---------------5--------|--------5------------------------|

G|---------------------------------|
D|---------------------------------|
A|--------5---------------5--------|
E|3---------------3----------------|

Bridge : (tempo change)
G|---------------------------------|---------------------------------|
D|---------------------------------|---------------------------------|
A|3-------3-------3-------3--------|3-------3-------3-------3--------|
E|----3-------3-------3-------3----|----3-------3-------3-------3----|

G|---------------------------------|---------------------------------|
D|---------------------------------|---------------------------------|
A|3-------3-------5-------5---3----|----3-------3-------3-------3----|
E|----3-------3-------3------------|3-------3-------3-------3--------|

G|---------------------------------|---------------------------------|
D|---------------------------------|---------------------------------|
A|----3-------3-------3-------3----|----3-------5-------5---3--------|
E|3-------3-------3-------3--------|3-------3-------3-----------3----|

G|---------------------------------|
D|---------------------------------|
A|3-------3------------------------|
E|----3----------------------------|

Solo : (tempo change)
G|---------------------------------|---------------------------------|
D|---------------------------------|---------------------------------|
A|---------------------------------|---------------------------------|
E|5-------0---3-/-8-------3--------|5-------0---3-/-8-------3--------|

G|---------------------------------|---------------------------------|
D|---------------------------------|---------------------------------|
A|---------------------------------|7---------------7----------------|
E|5-------0---3-/-8-------3---5/7--|--------7---------------7--------|

G|---------------------------------|
D|---------------------------------|
A|7---------------7-------3--------|
E|--------7------------------------|

Chorus :
G|---------------------------------|---------------------------------|
D|---------------------------------|---------------------------------|
A|3---------------3----------------|5---------------5---3---2---0----|
E|--------3---------------5--------|--------5------------------------|

G|---------------------------------|---------------------------------|
D|---------------------------------|---------------------------------|
A|--------5---------------5--------|----------------1---/---3--------|
E|3---------------3----------------|1---/---4------------------------|

G|---------------------------------|---------------------------------|
D|---------------------------------|---------------------------------|
A|3---------------3----------------|5---------------5---3---2---0----|
E|--------3---------------5--------|--------5------------------------|

G|---------------------------------|
D|---------------------------------|
A|--------5---------------5--------|
E|3---------------3----------------|

Outro : (tempo change)
G|---------------------------------|---------------------------------|
D|---------------------------------|---------------------------------|
A|3-------3-------3-------3--------|3---------------3----------------|
E|----3-------3-------3-------3----|----0---3---5-------0---3---5----|

Repeat :
G|---------------------------------|---------------------------------|
D|---------------------------------|---------------------------------|
A|3---------------3----------------|3---------------3----------------|
E|----0---3---5-------0---3---5----|----0---3---5-------0---3---5----|

            
            
Suggest correction
Creating personal tab
Creating personal tab
You can edit any tab online and save it as your Personal.

You can edit, replace or remove any tab part or add personal notes – all changes will be seen only by you.

Personal tabs can be accessed anytime from any device, even offline.
Learn more »
Give kudos to tab author, rate the tab!
1 2 3 4 5
comments
print report bad tab
guest
You may want to rate the tab now too:
select rating
Wanna post a correction for this tab? Suggest correction