Oops, an error
Loading. Please wait.

Vanilla Sky tab

15,058 views 3 this week
4 commentsread comments
1 2 3 4 5
x 9
add to favorites
×
Save as Personal and add changes to this tab that will be seen only by you. Learn more ›
×
You can save this tab as Personal to edit and correct it or add notes. All changes will be seen only by you. Learn more »
launch autoscroll
font size
0
reset
how to read this tab
guitar tuner
edit
Autoscroll
slow
fast
+/-
esc
set tempo
stop
#-----------------------------PLEASE NOTE-------------------------------------#
#This OLGA file is the author's own work and represents their interpretation  #
#of the song. You may only use this file for private study, scholarship, or   #
#research. Remember to view this file in Courier, or some other monospaced    #
#font. See http://www.olga.net/faq/ for more information.                     #
#-----------------------------------------------------------------------------#

From: "NA"
Subject: m/mccartney_paul/vanilla_sky.tab
Date: Tue, 26 Mar 2002 22:46:57 -0500

Vanilla Sky
(Paul McCartney)

- Tabbed by Brian Gruber (skratchy@gate.net)
Tabbed in Courier size 10
------------------------------------------------------
Please note, that this is just my interpretation and my first tab. As
with all tabs, this is just to give you a head start.
Always listen to the song as many times as possible for all the little
things that I miss, which includes rhythm.
Enjoy.

(Standard Tuning)

Intro - repeat 4 times
E--------0-----------------------------:|
B----3------3--------2---3^2-----------:|
G----0--------0------0---0----0--------:|
D----2--------------------------2------:|
A----------------0---------------------:|
E--0-----------------------------------:|

Verses

The chef prepares, a special menu.....
E--------0-----------------------------:|
B----3------3--------2---3^2-----------:|
G----0--------0------0---0----0--------:|
D----2--------------------------2------:|
A----------------0---------------------:|
E--0-----------------------------------:|

Bridge (strum these chords)

This is your time..
|------0----------------2-----------------|
|------2----------------3-----------------|
|------1----------------4-----------------|
|------2----------------4-----------------|
|------0----------------2-----------------|
|------0----------------2-----------------|

This is your day
|------0----------------0-----------------|
|------0----------------2-----------------|
|------1----------------2-----------------|
|------0----------------2-----------------|
|------2----------------0-----------------|
|------0----------------0-----------------|

You've Got it all
|------0----------------2-----------------|
|------2----------------3-----------------|
|------1----------------4-----------------|
|------2----------------4-----------------|
|------0----------------2-----------------|
|------0----------------2-----------------|


Don't Blow it....
|------0----------------------|
|------0----------------------|
|------1----------------------|
|------0----------------------|
|------2----------------------|
|------0----------------------|

Away (Bridge Strum)

|-----------0-----------------0---------------------|
|-----------7-----------------5---------------------|
|-----------6-----------------5---------------------|
|-----------4-----------------3---------------------|
|-----4-----4------------4----3---------------------|
|-----------x-----------------x---------------------|

Bridge (with whistling and solo over it, doodoodoo etc.)
E--------0-----------------------------:|
B----3------3--------2---3^2-----------:|
G----0--------0------0---0----0--------:|
D----2--------------------------2------:|
A----------------0---------------------:|
E--0-----------------------------------:|


Now back to Verse 2:

The chef prepares, a special menu.....
E--------0-----------------------------:|
B----3------3--------2---3^2-----------:|
G----0--------0------0---0----0--------:|
D----2--------------------------2------:|
A----------------0---------------------:|
E--0-----------------------------------:|

Bridge (strum these chords)

This is your time..
|------0----------------2-----------------|
|------2----------------3-----------------|
|------1----------------4-----------------|
|------2----------------4-----------------|
|------0----------------2-----------------|
|------0----------------2-----------------|

This is your day
|------0----------------0-----------------|
|------0----------------2-----------------|
|------1----------------2-----------------|
|------0----------------2-----------------|
|------2----------------0-----------------|
|------0----------------0-----------------|

You've Got it all
|------0----------------2-----------------|
|------2----------------3-----------------|
|------1----------------4-----------------|
|------2----------------4-----------------|
|------0----------------2-----------------|
|------0----------------2-----------------|


Don't Blow it....
|------0----------------------|
|------0----------------------|
|------1----------------------|
|------0----------------------|
|------2----------------------|
|------0----------------------|

Away (Bridge Strum)

|-----------0-----------------0---------------------|
|-----------7-----------------5---------------------|
|-----------6-----------------5---------------------|
|-----------4-----------------3---------------------|
|-----4-----4------------4----3---------------------|
|-----------x-----------------x---------------------|

Bridge (with whistling solo over it, doodoodoo etc.)
E--------0-----------------------------:|
B----3------3--------2---3^2-----------:|
G----0--------0------0---0----0--------:|
D----2--------------------------2------:|
A----------------0---------------------:|
E--0-----------------------------------:|


Now back to Verse 3:

The chef prepares, a special menu.....

In a Vanilla, In a Vanilla, In a Vanilla Sky
In a Vanilla, In a Vanilla, In a Vanilla Sky

E--------0-----------------------------:|
B----3------3--------2---3^2-----------:|
G----0--------0------0---0----0--------:|
D----2--------------------------2------:|
A----------------0---------------------:|
E--0-----------------------------------:|

Mmm....
|------0----------------2---------------|
|------2----------------3---------------|
|------1----------------4---------------|
|------2----------------4---------------|
|------0----------------2---------------|
|------0----------------2---------------|

In a Vanilla Sky
|------0----------------0---------------|
|------0----------------2---------------|
|------1----------------2---------------|
|------0----------------2---------------|
|------2----------------0---------------|
|------0----------------0---------------|

End

            
            
Suggest correction
Creating personal tab
Creating personal tab
You can edit any tab online and save it as your Personal.

You can edit, replace or remove any tab part or add personal notes – all changes will be seen only by you.

Personal tabs can be accessed anytime from any device, even offline.
Learn more »
comments
print report bad tab
4 comments total. Showing first comments.
-2 reply
hak_hap 300 Jul 21, 2005 08:00 PM

Damn it, UGStranger...You suck ass so much...

-1 reply
ndiminie13 35 Aug 19, 2009 01:29 PM

good tab! thanks so much!

0 reply
xTheLizardKing 10 Mar 31, 2011 05:44 PM

This tab is very very close, just a few things off or omitted:

The first chord of the Bridge is actually a "Amaj7/Bb" chord which looks like this-->
E---0
B---2
G---1
D---2
A---1
E---x

Also, it sounds better without the droning open E in the Bridge.
Finally, there is a short lick that is played after certain Em7, A7 progressions including the one right before the Bridge. If you listen back to the track you'll hear what I mean.
Goes like this-->
E-------------------- ----------------------------------
B-------------------- OR ----------------------------------
G-------------------- BEFORE ----------------------------------
D-------------------- BRIDGE: -----------------------------------
A--------------0----- -------------0-------------0--1-
E---0--2--3------0- --0--2--3------0--2--3--------

Hope this helps everyone, keep on jammin'.
-Charlie

guest
Wanna post a correction for this tab? Suggest correction