Oops, an error
Loading. Please wait.

With A Little Luck bass

2,991 views 9 this week
no commentswrite comment
1 2 3 4 5
1 last vote to show rating
add to favorites
×
Save as Personal and add changes to this tab that will be seen only by you. Learn more ›
×
You can save this tab as Personal to edit and correct it or add notes. All changes will be seen only by you. Learn more »
launch autoscroll
font size
0
reset
guitar tuner
edit
Autoscroll
slow
fast
+/-
esc
set tempo
stop
Author
          ---------------------------------------------------

                  PAUL MCCARTNEY - WITH A LITTLE LUCK
                            Paul McCartney
               From LONDON TOWN album. Released on 1978.

          ---------------------------------------------------




     This is the bass line of an outtake of the released tune,
     although it should be the take used for the album (I think).






     DRUMS AND KEYBOARD INTRO


  G|---------------------------------|---------------------------------|
  D|---------------------------------|---------------------------------|
  A|---------------------------------|---------------------------------|
  E|---------------------------------|---------------------------------|





  G|---------------------------------|---------------------------------|
  D|---------------------------------|---------------------------------|
  A|---------------------------------|---------------------------------|
  E|---------------------------------|---------------------------------|





  G|---------------------------------|---------------------------------|
  D|---------------------------------|---------------------------------|
  A|---------------------------------|---------------------------------|
  E|---------------------------------|---------------------------------|



     00:14

  G|---------------------------------|-----------------|
  D|---------------------------------|-----------------|
  A|-2-----------2-------------------|-----------------|
  E|---------------------------------|-----------------|





  G|---------------------------------|-----------------|
  D|---------------------------------|-----------------|
  A|-5-----------4-------------------|-2---------------|
  E|---------------------------------|-------------0---|





     VERSE
     00:20

  G|---------------------------------|---------------------------------|
  D|-----------------2---------------|---------------------------------|
  A|---------------------------------|-----------------7---------------|
  E|-------------0---------------4---|-------------4-----------4-------|
             With    little      luck          we  can help        out
                 a                                         it




  G|---------------------------------|-----------------4---------------|
  D|---------------------------------|---------------------------------|
  A|-0-----------0-----------0-------|-2-----------2-----------2-------|
  E|---------------------------------|---------------------------------|
             We  can make        whole     damn    thing   work    out
                         this




  G|---------------------------------|---------------------------------|
  D|---------------------------------|---------------------------------|
  A|-----------------7---------------|-----------------7---------------|
  E|-0-----------0-----------0-------|-4-----------4-----------4---0---|
             With    little      luck          we  can lay it      down
                 a




  G|-----------------2---------------|-----------------4---------------|
  D|---------------------------------|---------------------------------|
  A|-0-----------0-------x---0-------|-2-----------2-------x---2-------|
  E|---------------------------------|---------------------------------|
             Can't   feel        town      exploding?
                 you     the



     00:38

  G|---------------------------------|---------------------------------|
  D|---------------------------------|-------------------------2-------|
  A|-4-----------4-------------------|-4-----------4-------------------|
  E|---------------------------------|---------------------------------|





  G|---------------------------------|---------------------------------|
  D|-4-------------------------------|-------------------------------4-|
  A|---------------------------------|-4-----------4---------------4---|
  E|-------------2-------------------|---------------------------------|
                 There   no      end           to  what    we      can
                     is




  G|---------------------------------|---------------------------------|
  D|-------------4-------------------|---------------------------------|
  A|---------------------------------|-4-----------4-------------------|
  E|-2-------------------------------|---------------------------------|
     do          together




  G|---------------------------------|-------------6---------------x---|
  D|-4-------------------------------|---------------------------------|
  A|---------------------------------|-4-------------------------------|
  E|-------------2-------------------|---------------------------------|
                 There   no      end
                     is




  G|-6-----------6-------x---6---x---|-6-----------6-------x---6-------|
  D|---------------------------------|-----------------------------x---|
  A|---------------------------------|---------------------------------|
  E|---------------------------------|---------------------------------|





  G|---------------------------------|---------------------------------|
  D|-4-----------------------x-------|---------------------------------|
  A|---------------------------------|-4-----------4-----------4-------|
  E|-------------2-------------------|---------------------------------|
                 The willow      turns         his back    on      inclement




  G|-------------------------7-------|---------------------------------|
  D|-0-----------7-------------------|-----7-------------------7-------|
  A|---------------------------------|-----------------5---------------|
  E|---------------------------------|---------------------------------|
                 weather                                           and
                                                                     if




  G|-------------4-------------------|---------------------------------|
  D|-------------------------4-------|-----4-------------------4-/-----|
  A|-2-------------------------------|-----------------2---------------|
  E|---------------------------------|---------------------------------|
     he  can     do
                   it




  G|---------------------------------|---------------------------------|
  D|-9-------------------------------|---------------------------------|
  A|---------------------------------|---------------------------------|
  E|---------------------------------|-------------------------7-\-----|
         We  can do                            Just    me  and     you
                   it




     VERSE
     01:18

  G|---------------------------------|---------------------------------|
  D|---------------------------------|---------------------------------|
  A|-------------7-----------7-------|-----------------7---------------|
  E|-0-------------------0-----------|-4-----------4-----------4---0---|
             And a   little      luck          we  can clear       up
                                                           it




  G|---------------------------------|-------------4-------------------|
  D|---------------------------------|---------------------------------|
  A|-0-----------0---x-------0---x---|-2---2---------------2---2-------|
  E|---------------------------------|---------------------------------|
             We  can bring       in        for a   landing
                         it




  G|---------------------------------|---------------------------------|
  D|---------------------------------|---------------------------------|
  A|-----------------7---------------|-----------------7---------------|
  E|-0-----------0-----------0-------|-4---4-------4-----------4-------|
             With    little      luck          we  can turn        on
                 a                                         it




  G|-----------------2-------2-/-----|-4-----------4-----------4-/-----|
  D|-------------2-------------------|---------------------------------|
  A|-0-------------------------------|-----2---------------2-----------|
  E|---------------------------------|---------------------------------|
             Then    feel        time      expanding
                 you     the



     01:35

  G|---------------------------------|---------------------------------|
  D|---------------------------------|---------------------------------|
  A|-4-----------4-------------------|-4-----------4-------------------|
  E|---------------------------------|---------------------------------|





  G|---------------------------------|-------------6-------------------|
  D|-------------4-------------------|---------------------------------|
  A|---------------------------------|-4-------------------------------|
  E|-2-------------------------------|---------------------------------|
                 There   no      end           to  what    we      can
                     is




  G|---------------------------------|---------------------------------|
  D|-------------4-----------4-------|---------------------------------|
  A|-----------------------------x---|-4-----------4-------------------|
  E|-2-------------------------------|---------------------------------|
     do          together




  G|---------------------------------|---------------------------------|
  D|-------------4-----------4-------|---------------------------------|
  A|---------------------------------|-4-----------4-------------------|
  E|-2-------------------------------|---------------------------------|
                 There   no      end
                     is




  G|-6-----------6-----------6---x---|-6-----------6-------x---6---6---|
  D|---------------------------------|---------------------------------|
  A|---------------------------------|---------------------------------|
  E|---------------------------------|---------------------------------|





  G|---------------------------------|---------------------------------|
  D|-4-----------4-------------------|---------------------------------|
  A|---------------------------------|-4-----------4-------------------|
  E|---------------------------------|---------------------------------|
                 The willow      turns         his back    on      inclement




  G|---------------------------------|-----7-------7---6/7-----7-------|
  D|-------------------------7-------|---------------------9-------9\--|
  A|-5-----------5-------------------|---------------------------------|
  E|---------------------------------|---------------------------------|
                 weather




  G|-------------4-------4-----------|---------------------------------|
  D|-------------------------4-------|-----x---------------------------|
  A|-2-------------------------------|---------2-------2---2---2-------|
  E|---------------------------------|---------------------------------|
                 He  can do                    Just    me  and     you
                           it




     VERSE
     02:10

  G|---------------------------------|---------------------------------|
  D|---------------------------------|---------------------------------|
  A|-------------7---7---------------|-----------------7---------------|
  E|-0-----------------------0-------|-4-----------4-----------4-------|
             And a   little      luck          we  can clear       up
                                                           it




  G|-----------------2---------------|-----------------4---------------|
  D|---------------------------------|---------------------------------|
  A|-0-----------0-----------0-------|-2---2-------2-----------2-\-----|
  E|---------------------------------|---------------------------------|
             We  can bring       in        for a   landing
                         it




  G|---------------------------------|---------------------------------|
  D|---------------------------------|---------------------------------|
  A|-----------------7---------------|-----------------7---------------|
  E|-0-----------0-----------0-------|-4---4-------4-----------x-------|
             With    little      love          we  could   it      up
                 a                                     shake




  G|-----------------2---------------|-----------------4---------------|
  D|---------------------------------|---------------------------------|
  A|-0-----------0-----------0-------|-2---2-------2-----------2-\-----|
  E|---------------------------------|---------------------------------|
             Can you feel        comet     exploding?
                         the




  G|---------------------------------|---------------------------------|
  D|---------------------------------|---------------------------------|
  A|-4-----------4---4-----------x---|-4-----------4---4---x---4-/-----|
  E|---------------------------------|---------------------------------|





     VERSE
     02:32

  G|---------------------------------|---------------------------------|
  D|---------------------------------|---------------------------------|
  A|-----------------7---------------|-----------------7---------------|
  E|-0-----------0-----------0-------|-4-----------4-----------4-------|
             With    little      luck          we  can lay it      down
                 a




  G|-----------------2---------------|-----------------4-----------4/6-|
  D|---------------------------------|---------------------------------|
  A|-0-----------0-------0---0-------|-2---2-------2-----------2-------|
  E|---------------------------------|---------------------------------|
             We  can make        whole     damn    thing   work    out
                         this




  G|---------------------------------|---------------------------------|
  D|---------------------------------|---------------------------------|
  A|-----------------7---------------|-----------------7---------------|
  E|-0-----------------------0-------|-4-----------4-----------4---x---|
             With    little      luck          we  can lay it      down
                 a




  G|-----------------2---x---2-/-4---|-4-------------------------------|
  D|---------------------------------|---------------------------------|
  A|-0-----------0-------------------|-----2-------2-----------2---x---|
  E|---------------------------------|---------------------------------|
             Can you feel        comet     exploding?
                         the




     INTERLUDE
     02:50

  G|---------------------------------|---------------------------------|
  D|---------------------------------|---------------------------------|
  A|-----------------7-------7-------|-----------------7---------------|
  E|-0-----------0-------0-------0---|-4-----------4-----------4---0---|
                 With            luck              we  can clear   up
                   a little                                    it




  G|-----------------2---2---2\1-----|---------4-----------4---4/6\4---|
  D|-----------------------------4---|---------------------------------|
  A|-0-----------0-------------------|-2-----------2-------------------|
  E|---------------------------------|---------------------------------|
             We  can bring       in        for a   landing
                         it




  G|---------------------------------|---------------------------------|
  D|---------------------------------|---------------------------------|
  A|---------------------7-----------|-----------------7---------------|
  E|-0---------------------------0---|-4-----------4-----------4---x---|
                 With            luck                          we  can
                   a little




  G|-------------2-----------2-------|---------------------------------|
  D|---------------------------------|---------------------------------|
  A|-0---------------------------x---|-2-----------2-------2---2-------|
  E|---------------------------------|---------------------------------|
     turn  on            there   no    more
         it                  with          misunderstanding




  G|---------------------------------|---------------------------------|
  D|---------------------------------|---------------------------------|
  A|-----------------7-------7-------|-----------------7---------------|
  E|-0-----------0-------x-----------|-4-----------4-----------4-------|
         Oooooooooooooooh        With  little      push        we  could
                                   a 




  G|-----------------2-------2-/-----|---------------------------------|
  D|---------------------------------|---------------------------------|
  A|-0-----------0-------------------|-2-----------2-------------------|
  E|---------------------------------|---------------------------------|
     set it  off         We  send      rocketing
                           can   it            skywards




  G|---------------------------------|---------------------------------|
  D|---------------------------------|---------------------------------|
  A|-----------------2---------------|---------------------------------|
  E|---------------------------------|-0-------------------------------|





  G|---------------------------------|
  D|---------------------------------|
  A|---------------------------------|
  E|-------------0---0-------0-------|




     03:22

  G|---------------------------------|-----------------|
  D|---------------------------------|-----------------|
  A|-2-----------2-------------------|-----------------|
  E|---------------------------------|-----------------|





  G|---------------------------------|---------------------------------|
  D|---------------------------------|-------------2-----------/-------|
  A|-5-----------4-------------------|-2-------------------------------|
  E|---------------------------------|---------------------------------|





  G|---------------------------------|---------------------------------|
  D|---------------------------------|-------------2-------------------|
  A|-5-----------4-------------------|-2-------------------------------|
  E|---------------------------------|---------------------0---0-------|





  G|---------------------------------|---------------------------------|
  D|---------------------------------|-------------2---/---------------|
  A|-5-----------4-------------------|-2-------------------------------|
  E|---------------------------------|---------------------------------|





  G|-7-----------6-------------------|---------------------------------|
  D|---------------------------------|---------------------------------|
  A|---------------------------------|---------------------------------|
  E|---------------------------------|---------------------------------|





  G|-----------------|---------------------------------|
  D|-----------------|---------------------------------|
  A|-----------------|-2-----------2-------------------|
  E|-----------------|---------------------------------|





  G|---------------------------------|---------------------------------|
  D|---------------------------------|---------------------------------|
  A|-----------------2---------------|---------------------------------|
  E|---------------------------------|-0-------------------------------|





  G|---------------------------------|---------------------------------|
  D|---------------------------------|---------------------------------|
  A|---------------------------------|---------------------------------|
  E|---------------------------------|---------------------------------|





  G|---------------------------------|---------------------------------|
  D|---------------------------------|---------------------------------|
  A|---------------------------------|---------------------------------|
  E|---------------------------------|---------------------------------|




     04:00

  G|-9-------------------------------|-----------------9---------------|
  D|---------------------------------|---------------------------------|
  A|---------------------------------|---------------------------------|
  E|---------------------------------|---------------------------------|





  G|-----------------------------x---|-9-------------------------------|
  D|---------------------------------|---------------------------------|
  A|---------------------------------|---------------------------------|
  E|---------------------------------|---------------------------------|





  G|---------------------------------|---------------------------------|
  D|--------------------7/11---------|---------------------------------|
  A|---------------------------------|---------------------------------|
  E|---------------------------------|-0-------------------------------|





  G|---------------------------------|
  D|---------------------------------|
  A|-----------------7---7---7-\-----|
  E|-------------7-9-----------------|





     VERSE
     04:15

  G|---------------------------------|---------------------------------|
  D|---------------------------------|---------------------------------|
  A|-------------7-----------7-------|-------------7-----------7-------|
  E|-0-------------------0-----------|-4-------------------4-------0---|
             With    little      luck          we  can turn        on
                 a                                         it




  G|-------------2-------------------|------------4------------4/6-----|
  D|---------------------------------|---------------------------------|
  A|-0-----------------------0---x---|-2-------------------2-----------|
  E|---------------------------------|---------------------------------|
             There   be  no      misunderstanding
                 can




  G|---------------------------------|---------------------------------|
  D|---------------------------------|---------------------------------|
  A|-------------7-----------7-------|-------------7-------------------|
  E|-0-------------------0-------x---|-4---x-------------------4---0---|
             With    little      push          we  could   it      off
                 a                                     set




  G|-------------2-------------------|-------------4-----------4/6-----|
  D|---------------------------------|---------------------------------|
  A|-0-----------------------0---x---|-2---2---------------------------|
  E|---------------------------------|---------------------------------|
             We  can send        rocketing     skywards
                         it



     04:33

  G|---------------------------------|---------------------------------|
  D|---------------------------------|-----------------------------x-2-|
  A|-4-----------4-------------------|-4-----------4-----------x-------|
  E|---------------------------------|---------------------------------|





  G|---------------------------------|---------------------------------|
  D|-4-----------4-------------------|---------------------------------|
  A|---------------------------------|-4-----------4-------------------|
  E|---------------------------------|---------------------------------|





  G|---------------------------------|-6-----------6-------------------|
  D|-4-----------4-------------------|---------------------------------|
  A|---------------------------------|---------------------------------|
  E|---------------------------------|---------------------------------|





  G|-6-----------x-----------6-------|-6-----------6-----------6-------|
  D|---------------------------------|---------------------------------|
  A|---------------------------------|---------------------------------|
  E|---------------------------------|---------------------------------|





  G|-6-----------6-------x---6---x---|-6-----------6-------x---6-------|
  D|---------------------------------|---------------------------------|
  A|---------------------------------|---------------------------------|
  E|---------------------------------|---------------------------------|





  G|---------------------------------|---------------------------------|
  D|-4-----------4-------------------|---------------------------------|
  A|---------------------------------|-4---------------------------x-x-|
  E|---------------------------------|---------------------------------|
                 The willow      turns         his back    on      inclement




  G|---------------------------------|---------------------------------|
  D|---------------------------------|---------------------------------|
  A|-5---------------------------0---|-5-------------------------------|
  E|---------------------------------|---------------------------------|
                 weather




  G|---------------------------------|---------------------------------|
  D|---------------------------------|-9-------9---------------9-\-----|
  A|-2-----------2-----------/-------|---------------------------------|
  E|---------------------------------|---------------------------------|
             We  do
               can it




     VERSE
     05:08

  G|---------------------------------|---------------------------------|
  D|---------------------------------|---------------------------------|
  A|-7-----------7-------------------|-------------7-------------------|
  E|---------------------0-----------|-4-----------------------4---0---|
             And a   little      luck          we  can clear       up
                                                           it




  G|---------------------------------|-------------4----------4/6------|
  D|---------------------------------|---------------------------------|
  A|-0-----------0-------------------|-2-------------------------------|
  E|---------------------------------|---------------------------------|
             We  can bring       in        for a   landing
                         it




  G|---------------------------------|---------------------------------|
  D|---------------------------------|---------------------------------|
  A|-7-----------7-------------------|-------------7-------------------|
  E|-------------------------0-------|-4-----------------------4---x---|
             With    little      luck          we  can take        down
                 a                                         it




  G|---------------------------------|---------------------------------|
  D|-------------7-----------7-------|-7-/-9-------7---/---9---9-\-----|
  A|-0-------------------------------|---------------------------------|
  E|---------------------------------|---------------------------------|
             Can you feel        time          expanding?
                         the



     05:25

  G|---------------------------------|---------------------------------|
  D|---------------------------------|---------------------------------|
  A|-------------------------7-------|-------------7-------------------|
  E|-0-----------0-------------------|-4-----------------------4-------|
             With    little            luck                    we  can
                 a




  G|-------------2-------------------|---------------------------------|
  D|---------------------------------|---------------------------------|
  A|-0-------------------x---0-------|-x---2-------2-------2---2---x---|
  E|---------------------------------|---------------------------------|
     lay't               and can make  this            damn        work
         down                              whole           thing



  G|---------------------------------|---------------------------------|
  D|---------------------------------|---------------------------------|
  A|-------------7-----------7-------|-------------7-----------7-------|
  E|-0-------------------0-----------|-4-------4-----------4-----------|
     out                 with          luck                    we  can
                           a little




  G|---------------------------------|---------------------------------|
  D|---------------------------------|---------------------------------|
  A|-0-----------0-----------0-------|-5-----------4-------------------|
  E|---------------------------------|---------------------------------|
     lay't                             can you feel    comet   exploding?
         down                                      the



     05:41

  G|---------------------------------|-7-----------6-------------------|
  D|-------------2-----------/-------|---------------------------------|
  A|-2-------------------------------|---------------------------------|
  E|---------------------------------|---------------------------------|





  G|-----------------|---------------------------------|
  D|--------5/-------|---------------------------------|
  A|-----------------|-2-----------2-------------------|
  E|-----------------|---------------------------------|





  G|---------------------------------|---------------------------------|
  D|---------------------------------|---------------------------------|
  A|-----------------2---------------|---------------------------------|
  E|---------------------------------|-0-------------------------------|





  G|---------------------------------|-----9-7-------------------------|
  D|---------------------------------|---------9---7-9-6---------------|
  A|---------------------------------|---------------------------------|
  E|---------------------------------|---------------------------------|

            
            
Suggest correction
Creating personal tab
Creating personal tab
You can edit any tab online and save it as your Personal.

You can edit, replace or remove any tab part or add personal notes – all changes will be seen only by you.

Personal tabs can be accessed anytime from any device, even offline.
Learn more »
Give kudos to tab author, rate the tab!
1 2 3 4 5
comments
print report bad tab
guest
You may want to rate the tab now too:
select rating
Wanna post a correction for this tab? Suggest correction