Oops, an error
Loading. Please wait.

Ready Steady Go tab

version 1
version 1

Whole song

10,864 views 15 this week
8 commentsread comments
1 2 3 4 5
x 9
add to favorites
×
Save as Personal and add changes to this tab that will be seen only by you. Learn more ›
×
You can save this tab as Personal to edit and correct it or add notes. All changes will be seen only by you. Learn more »
launch autoscroll
font size
0
reset
how to read this tab
guitar tuner
edit
Autoscroll
slow
fast
+/-
esc
set tempo
stop
Paul Oakenfold - Ready steady go (album version)

this song is one half step down, dropped D
but this tab is for standard with dropped dflat, there is only one riff the
dropped Dflat is needed for.

clean w/ wah
Riff 1

e--------------|-----------------------------------|
b------4---6---|-----------------------------------|
G--6---4---6---|--6---4---6------------------------|
D--6---2---4---|--6---2---4------------------------|
A--4-----------|--4---2---4------------------------|
Df-------------|-----------------------------------|


play until 0:20


at 0:23 Play w/ delay until 0:52

e-----------|
b-----------|
G-----------|
D------6----|
A-----------|
Df----------|

at :52 with slight distorsion (2 guitars arr for one)

riff2

e--------------------------|-------------------------|
b--------------------------|-------------------------|
G--------------------------|-------------------------|
D--------------------------|-------------------------|
A--------------------------|----4---4--4--4---6--7---|
Df---0--0-0-0--2--0--3--0--|-------------------------|

at 1:06

riff 3

e----9--9--7--9--7///4--|--4-4h5---4-4h5--4h5-4h5-|
b-----------------------|-------------------------|
G-----------------------|-------------------------|
D-----------------------|-------------------------|

1:22

play riff 1

1:37

e-----------|----------|-----------|-------|
b-----------|----b9b---|-----------|-------|
G-----------|----------|-----------|-------|
D------6----|----------|------6----|-------|
A-----------|----------|-----------|-------|
Df----------|----------|-----------|-------|

repaeat until

2:08

play riff 2

2:22

Riff 3

2:38

Break

3:00

Play riff 1

e-----------|----------|-----------|-------|
b-----------|----b9b---|-----------|-------|
G-----------|----------|-----------|-------|
D------6----|----------|------6----|-------|
A-----------|----------|-----------|-------|
Df----------|----------|-----------|-------|

at 3:37

Play riff 3
and above riff until end

There one more part I hear but cannot figure out.  This is my first tab so the
format is not great but enjot anyhow.
Send corrections to
tdxmofo@hotmail.com

            
            
Suggest correction
Creating personal tab
Creating personal tab
You can edit any tab online and save it as your Personal.

You can edit, replace or remove any tab part or add personal notes – all changes will be seen only by you.

Personal tabs can be accessed anytime from any device, even offline.
Learn more »
comments
print report bad tab
8 comments total. Showing first comments.
0 reply
Trevor6 20 Nov 26, 2005 05:26 PM

good tab but when you play this riff
e--------------------------|-------------------------|
b--------------------------|-------------------------|
G--------------------------|-------------------------|
D--------------------------|-------------------------|
A--------------------------|----4---4--4--4---6--7---|
Df---0--0-0-0--2--0--3--0--|-------------------------|
hit the seven twice. other then that, great tab!

+1 reply
Mexican Militia 10 Jul 08, 2006 09:13 PM

nice brotha

+1 reply
ramm_ty 238 Jan 18, 2007 07:33 AM

sweet

guest
Wanna post a correction for this tab? Suggest correction