Oops, an error
Loading. Please wait.

Loves Me Like A Rock bass

version 1
version 1

Whole song

Interactive

5,333 views 3 this week
5 commentsread comments
1 2 3 4 5
1 last vote to show rating
add to favorites
×
Save as Personal and add changes to this tab that will be seen only by you. Learn more ›
×
You can save this tab as Personal to edit and correct it or add notes. All changes will be seen only by you. Learn more »
launch autoscroll
font size
0
reset
guitar tuner
backing track
0:00
0:00
edit
Autoscroll
slow
fast
+/-
esc
set tempo
stop
Author
[INTRO]
                                         When I was a little
 Hmmmm     G     C  G     C  G     C  G
G:--------|--------|0-------|0-------|0-------|
D:--------|--------|--------|--------|--------|
A:--------|--------|--------|--------|--------|
E:--------|--------|--------|--------|--------|

[VERSE]
  G    C G                             G     C G
  Boy      And the Devil would call my name
                 C7       C7                      G         C G
  I'd say, "Now, who do   Who do you think you're foolin'?"

  G     C  G        G     C  G        C7       C7       G     C  G
G:0-------|0-------|0-------|0-------|--------|--------|0-------|0-------|
D:----0-3-|----0---|----0-3-|----0---|--------|----0-3-|----0-3-|----0---|
A:--------|--------|--------|--------|3-----2-|3-------|--------|--------|
E:--------|--------|--------|--------|----3---|--------|--------|--------|

                    G    C G                     C7            C7
  I'm a consecrated Boy      I'm a singer in the Sunday choir
              G              D
  Oh My momma loves me   She loves me

  G     C  G        C7       C7       G        D       
G:0-------|0-------|--------|--------|0-0-0-0-|--------|
D:----0-3-|----0---|--------|----0-3-|--------|0-0-0-0-|
A:--------|--------|3-----2-|3-------|--------|--------|
E:--------|--------|----3---|--------|--------|--------|

[CHORUS]
      G                          Em
  She gets down on her knees and hugs me
         C               G      C                       F       C  
  Aw she loves me like a rock     She rocks me like the rock of ages

  G        Em       C        G        C        F   C    
G:0-0-0-0-|--------|--------|--------|--------|--------|
D:--------|2-2-2-0-|--------|----0---|--------|3-------|
A:--------|--------|3-3-2-0-|--2---2-|3-------|----3---|
E:--------|--------|--------|3-------|----3---|--------|

      G          G                       G          G
  She loves me     She loves me loves me loves me

  G        G        G        G        
G:0-------|--------|0-------|--------|
D:--2-0-2-|----0---|--2-0-2-|--------|
A:--------|--2---2-|--------|--------|
E:--------|3-------|--------|3-------|

[VERSE]
                           G   C G                              G     C G
  When I was grown to be a man      And the Devil would call my name
                 C7        C7                      G         C G
  I'd say, "Now, who do    Who do you think you're foolin'?"

  G     C  G        G     C  G        C7       C7       G     C  G
G:0-------|0-------|--------|--------|--------|----0-2-|0-------|0-------|
D:--------|--2-0---|----0---|--------|--------|--2-----|----0---|--2-0---|
A:--------|------2-|--------|----0-2-|3-------|3-------|--------|------2-|
E:--------|--------|3-------|3--3----|----3--3|--------|--------|--------|

                    G    C G                        G   C G 
  I'm a consummated man       Can I snatch a little pur-i-ty
               G               D
  Oh, my momma loves me    She loves me

  G     C  G        C7       C7       G        D
G:--------|0-------|--------|----0-2-|0-0-0-0-|--------|
D:--------|--2-0---|--------|--2-----|--------|0-0-0-0-|
A:--------|------2-|3-------|3-------|--------|--------|
E:3-------|--------|----3---|--------|--------|--------|

[CHORUS]
      G                          Em
  She gets down on her knees and hugs me
          C               G      C                       F       C  
  Oh, she loves me like a rock     She rocks me like the rock of ages

  G        Em       C        G        C        F   C    
G:0-0-0-0-|--------|--------|--------|--------|--------|
D:--------|2-2-2-0-|--------|----0---|--------|3-------|
A:--------|--------|3-3-2-0-|--2---2-|3-------|----3---|
E:--------|--------|--------|3-------|----3---|--------|

      G          G                       G          G
  She loves me     She loves me loves me loves me

  G        G        G        G        
G:0-------|0-------|0-------|0-------|
D:----0---|----0-3-|----0---|----0-3-|
A:--------|--------|--------|--------|
E:--------|--------|--------|--------|

[VERSE 3]
                        G     C G                                    G     C G
  And if I was the President      The minute that Congress'd call my name
                 C7        C7                      G         C G
  I'd say, "Now, who do    Who do you think you're foolin'?"

  G     C  G        G     C  G        C7       C7       G     C  G
G:0-------|0-------|--------|--------|--------|----0-2-|0-------|0-------|
D:----0---|--2-0---|----0---|--------|--------|--2-----|----0---|--2-0---|
A:--------|------2-|--------|----0-2-|3-------|3-------|--------|------2-|
E:--------|--------|3-------|3--3----|----3--3|--------|--------|--------|

                         G      C G                            C7   C7
  I got the Presidential Seal       I'm up on the Presidential Podi-um
           G              D
  My momma loves me   She loves me

  G     C  G        C7       C7       G        D
G:--------|--------|--------|----0-2-|0-0-0-0-|--------|
D:----0---|--------|--------|--2-----|--------|0-0-0-0-|
A:--------|----0-2-|3-------|3-------|--------|--------|
E:3-------|3--3----|----3---|--------|--------|--------|

[CHORUS]
      G                          Em
  She gets down on her knees and hugs me
         C               G      C                       F       C  
  Oh she loves me like a rock     She rocks me like the rock of ages

  G        Em       C        G        C        F   C  
G:0-0-0-0-|--------|--------|--------|--------|--------|
D:--------|2-2-2-0-|--------|----0---|--------|3-------|
A:--------|--------|3-3-2-0-|--2---2-|3-------|----3---|
E:--------|--------|--------|3-------|----3---|--------|

      G          G                       G          G
  She loves me     She loves me loves me loves me

  G        G        G        G        
G:0-------|--------|0-------|--------|
D:--2-0-2-|----0---|--2-0-2-|----0---|
A:--------|--2---2-|--------|--2---2-|
E:--------|3-------|--------|3-------|

[CODA]                    
  G        G        G        G        G        G        C        F   C
G:0-------|--------|0-------|--------|0-------|--------|----0---|--------|
D:--2-0-2-|----0---|--2-0-2-|----0---|--2-0-2-|----0---|--2---2-|3-------|
A:--------|--2---2-|--------|--2---2-|--------|--2---2-|3-------|--0-3-3-|
E:--------|3-------|--------|3-------|--------|3-------|--------|--------|

[Repeat ad nauseum...]
                                      
  G        G        G        G        C        F   C
G:0-------|--------|0-------|--------|----0---|--------|
D:--2-0-2-|----0---|--2-0-2-|----0---|--2---2-|3-------|
A:--------|--2---2-|--------|--2---2-|3-------|--0-3-3-|
E:--------|3-------|--------|3-------|--------|--------|


Tabbed by Michael Oxner
moxner@nbnet.nb.ca
Corrected March 18, 2015.

            
            
Suggest correction
Creating personal tab
Creating personal tab
You can edit any tab online and save it as your Personal.

You can edit, replace or remove any tab part or add personal notes – all changes will be seen only by you.

Personal tabs can be accessed anytime from any device, even offline.
Learn more »
Give kudos to tab author, rate the tab!
1 2 3 4 5
comments
print report bad tab
5 comments total. Showing first comments.
0 reply
miles.wiggins 11 Mar 11, 2015 11:20 AM

over C chord it says to play F on the 3rd fret, should be an A on the 2nd fret.

0 reply
MOxner 2,018 Mar 18, 2015 03:02 PM

I'm not sure about this. I played my corrected tab through and don't feel any F's are out of place. Can you clarify?

0 reply
miles.wiggins 11 Mar 18, 2015 01:55 PM

also:

|0-------|--------|0-------|--------|
|--0---0-|----0---|--0---0-|----0---|
|----2---|--2---2-|----2---|--2---2-|
|--------|3-------|--------|3-------| incorrect

|0-------|--------|0-------|--------|
|--2-0-2-|----0---|--2-0-2-|----0---|
|--------|--2---2-|--------|--2---2-|
|--------|3-------|--------|3-------|correct!

guest
You may want to rate the tab now too:
select rating
Wanna post a correction for this tab? Suggest correction