Oops, an error
Loading. Please wait.

The Vampires tab

version 1
version 1

Whole song

1,269 views 1 this week
1 commentread comment
1 2 3 4 5
2 more votes to show rating
add to favorites
×
Save as Personal and add changes to this tab that will be seen only by you. Learn more ›
×
You can save this tab as Personal to edit and correct it or add notes. All changes will be seen only by you. Learn more »
launch autoscroll
font size
0
reset
how to read this tab
guitar tuner
edit
Autoscroll
slow
fast
+/-
esc
set tempo
stop
Author
The Vampire 
Paul Simon
tabbed by camilla thelle & torbjørn nymo 

Chords:
F#dim    xx1212/201212/234242 
        (or better: F7b9  101212) 
Gm       355333/3x0333/xx5333
Dm       xx0231/x57765   
D        xx0232/x57775


F#dim - Gm - Dm - D (repeated throughout)


The piano riff (now corrected!) can be played:

F#dim   Gm     Dm     D     F#dim
   |---------------------------------|
   |------------3---4---1-4-3---3-1--|
   |*-------0-3---3---2-------2-----*|
   |*-0-2-4-------------------------*|
   |---------------------------------|
   |---------------------------------|

            
            
Suggest correction
Creating personal tab
Creating personal tab
You can edit any tab online and save it as your Personal.

You can edit, replace or remove any tab part or add personal notes – all changes will be seen only by you.

Personal tabs can be accessed anytime from any device, even offline.
Learn more »
Give kudos to tab author, rate the tab!
1 2 3 4 5
comments
print report bad tab
1 comment total.
0 reply
Rare Gast 82 Aug 15, 2011 04:47 AM

F#dim Gm Dm D F#dim
|---------------------------------|
|------------3---4---1-4-3---3-1--|
|--------0-3---3---2-------2------|
|--0-2-4--------------------------|
|---------------------------------|
|---------------------------------|
almost right, only the last part isn't correct

guest
You may want to rate the tab now too:
select rating
Wanna post a correction for this tab? Suggest correction