Oops, an error
Loading. Please wait.

Was A Sunny Day bass

70 views 1 this week
no commentswrite comment
1 2 3 4 5
3 more votes to show rating
add to favorites
×
Save as Personal and add changes to this tab that will be seen only by you. Learn more ›
×
You can save this tab as Personal to edit and correct it or add notes. All changes will be seen only by you. Learn more »
launch autoscroll
font size
0
reset
guitar tuner
edit
Autoscroll
slow
fast
+/-
esc
set tempo
stop
Author
Difficulty
Tabbed by: 6METAL6BASSIST6
E-mail: petergriffinav@gmail.com

Tuning: 1/4 step up.

G|----------------------------------------------------------------|
D|----------------5-------5-----------------------5---------------|
A|3-----------3-------------------3-----------3-----------3-------|
E|----------------------------------------------------------------|

G|----------------------------------------------------------------|
D|----------------------------------------------------------------|
A|----------------5-------5-----------------------5---------------|
E|3-----------3-------------------3-----------3-----------3-------|

G|----------------------------------------------------------------|
D|----------------7-------7-----------------------7---------------|
A|5-----------5-------------------5-----------5-----------5-------|
E|----------------------------------------------------------------|

G|----------------------------------------------------------------|
D|----------------------------------------------------------------|
A|----------------5-------5---------------------------------------|
E|3-----------3-------------------3-------------------------------|

0:17

G|----------------------------------------------------------------|
D|----------------5-------5-----------------------5---------------|
A|3-----------3-------------------3-----------3-----------3-------|
E|----------------------------------------------------------------|

G|----------------------------------------------------------------|
D|--------------------------------------------------------5-------|
A|----------------5-------5-----------------------5---------------|
E|3-----------3-------------------3-----------3-------------------|

G|----------------------------------------------------------------|
D|----------------7-------7-----------------------7---------------|
A|5-----------5-------------------5-----------5-----------5---/---|
E|----------------------------------------------------------------|

G|----------------------------------------------------------------|
D|----------------9-----------------------------------------------|
A|7-----------7-----------7-------------------------------2-------|
E|--------------------------------0-------3-------5---------------|

0:33

G|----------------------------------------------------------------|
D|----------------5-------5-----------------------5---------------|
A|3-----------3-------------------3-----------3-----------3-------|
E|----------------------------------------------------------------|

G|----------------------------------------------------------------|
D|--------------------------------------------------------5-------|
A|----------------5-------5-----------------------5---------------|
E|3-----------3-------------------3-----------3-------------------|

G|----------------------------------------------------------------|
D|----------------7-------7-----------------------7---------------|
A|5-----------5-------------------5-----------5-----------5-------|
E|----------------------------------------------------------------|

G|----------------------------------------------------------------|
D|----------------------------------------------------------------|
A|----------------5-------5-----------------------5---------------|
E|3-----------3-------------------3-----------3-----------3-------|

0:49

G|----------------------------------------------------------------|
D|------------------------7-----------------------7---------------|
A|----------------7---------------5-----------5-----------5-------|
E|5-----------5---------------------------------------------------|

G|----------------------------------------------------------------|
D|5-----------5---------------------------2-------4-------6-------|
A|----------------7-------7---------------------------------------|
E|--------------------------------0-------------------------------|

G|----------------------------------------------------------------|
D|7-----------7-----------------------------------7---------------|
A|----------------7---------------5-----------5-----------5-------|
E|------------------------5---------------------------------------|

G|----------------------------------------------------------------|
D|--------------------------------------------------------6-------|
A|3-----------3---2---------------------------5---7---------------|
E|------------------------5-------3-------------------------------|

1:05

G|----------------------------------------------------------------|
D|7-----------7-----------------------------------7---------------|
A|----------------7---------------5-----------5-----------5-------|
E|------------------------5---------------------------------------|

G|----------------------------------------------------------------|
D|----------------------------------------------------------------|
A|3-----------3---2---------------------------------------2-------|
E|------------------------5-------3-------3-------5---------------|

1:13

G|----------------------------------------------------------------|
D|----------------5-------5-----------------------5---------------|
A|3-----------3-------------------3-----------3-----------3-------|
E|----------------------------------------------------------------|

G|----------------------------------------------------------------|
D|----------------------------------------------------------------|
A|----------------5-------5-----------------------5---------------|
E|3-----------3-------------------3-----------3-----------3-------|

G|----------------------------------------------------------------|
D|----------------7-------------------------------7---------------|
A|5-----------5-------------------5-----------5-----------5---/---|
E|------------------------5---------------------------------------|

G|----------------------------------------------------------------|
D|----------------9-----------------------------------------------|
A|7-----------7-----------7-------------------------------2-------|
E|--------------------------------0-------3-------5---------------|

1:29

G|----------------------------------------------------------------|
D|----------------5-------5-----------------------5---------------|
A|3-----------3-------------------3-----------3-----------3-------|
E|----------------------------------------------------------------|

G|----------------------------------------------------------------|
D|----------------------------------------------------------------|
A|----------------5-------5-----------------------5---------------|
E|3-----------3-------------------3-----------3-----------3-------|

G|----------------------------------------------------------------|
D|----------------7-------7-----------------------7---------------|
A|5-----------5-------------------5-----------5-----------5-------|
E|----------------------------------------------------------------|

G|----------------------------------------------------------------|
D|5-----------5-----------5---------------------------------------|
A|----------------5-------------------------------5---------------|
E|--------------------------------3-----------3-----------3-------|

1:45

G|----------------------------------------------------------------|
D|------------------------7-----------------------7---------------|
A|----------------7---------------5-----------5-----------5-------|
E|5-----------5---------------------------------------------------|

G|----------------------------------------------------------------|
D|5-----------5---------------------------------------------------|
A|----------------7-------7-------------------7-----------7-------|
E|--------------------------------0---------------0-----------0---|

G|------------------------------------------------7---------------|
D|----------------7---------------------------------------7-------|
A|------------------------7-------5-----------5---------------5---|
E|5-----------5---------------------------------------------------|

G|------------5---4-----------------------------------------------|
D|------------------------7-------5-----------5---2-----/-6-------|
A|3---------------------------------------------------------------|
E|----------------------------------------------------------------|

2:02

G|----------------------------------------------------------------|
D|7-----------7-----------------------------------7---------------|
A|----------------7---------------5-----------5-----------5-------|
E|------------------------5---------------------------------------|

G|----------------------------------------------------------------|
D|----------------2-------5---------------------------------------|
A|3-----------3---------------------------------------------------|
E|--------------------------------3-------------------------------|

2:09

G|----------------------------------------------------------------|
D|----------------5-------------------------------5---------------|
A|3-----------3-------------------3-----------3-----------3-------|
E|------------------------3---------------------------------------|

G|----------------------------------------------------------------|
D|--------------------------------------------------------5-------|
A|----------------5-------5-----------------------5---------------|
E|3-----------3-------------------3-----------3-------------------|

G|----------------------------------------------------------------|
D|----------------7-------------------------------7---------------|
A|5-----------5-------------------5-----------5-----------5---/---|
E|------------------------5---------------------------------------|

G|----------------------------------------------------------------|
D|----------------9-----------------------------------------------|
A|7-----------7-----------7-------------------------------2-------|
E|--------------------------------0-------3-------5---------------|

2:26

G|----------------------------------------------------------------|
D|----------------5-------5-----------------------5---------------|
A|3-----------3-------------------3-----------3-----------3-------|
E|----------------------------------------------------------------|

G|----------------------------------------------------------------|
D|--------------------------------------------------------5-------|
A|----------------5-------5-----------------------5---------------|
E|3-----------3-------------------3-----------3-------------------|

G|----------------------------------------------------------------|
D|----------------7-------7-----------------------7---------------|
A|5-----------5-------------------5-----------5-----------5-------|
E|----------------------------------------------------------------|

G|----------------------------------------------------------------|
D|----------------------------------------------------------------|
A|----------------5-------5-----------------------5---------------|
E|3-----------3-------------------3-----------3-----------3-------|

2:41

G|----------------------------------------------------------------|.
D|----------------5-------5-----------------------2-------5-------|.
A|3-----------3-------------------3-----------3-------------------|.
E|----------------------------------------------------------------|.
                                                                   .
G|----------------------------------------------------------------|.
D|--------------------------------------------------------5-------|.
A|----------------5-------5-----------------------5---------------|.
E|3-----------3-------------------3-----------3-------------------|.
                                                                   . x2
G|----------------------------------------------------------------|.
D|----------------7-------7-----------------------7---------------|.
A|5-----------5-------------------5-----------5-----------5-------|.
E|----------------------------------------------------------------|.
                                                                   .
G|----------------------------------------------------------------|.
D|----------------------------------------------------------------|.
A|----------------5-------5-------------------------------2-------|.
E|3-----------3-------------------3-----------3---5---------------|.

3:13

G|----------------------------------------------------------------|
D|----------------5-------5-----------------------2-------5-------|
A|3-----------3-------------------3-----------3-------------------|
E|----------------------------------------------------------------|

G|----------------------------------------------------------------|
D|----------------------------------------------------------------|
A|----------------5-------5-----------------------5---------------|
E|3-----------3-------------------3-----------3-----------3-------|

G|----------------------------------------------------------------|
D|----------------7-------7-----------------------7---7-----------|
A|5-----------5-------------------5-----------5-----------5-------|
E|----------------------------------------------------------------|

G|----------------------------------------------------------------|
D|----------------------------------------------------------------|
A|----------------5-------5-----------------------2-------5-------|
E|3-----------3-------------------3-----------3-------------------|

3:29

G|----------------------------------------------------------------|
D|----------------5-------5-----------------------2-------5-------|
A|3-----------3-------------------3-----------3-------------------|
E|----------------------------------------------------------------|

G|----------------------------------------------------------------|
D|----------------------------------------------------------------|
A|----------------5-------5---------------------------------------|
E|3-----------3-------------------3-------------------------------|

            
            
Suggest correction
Creating personal tab
Creating personal tab
You can edit any tab online and save it as your Personal.

You can edit, replace or remove any tab part or add personal notes – all changes will be seen only by you.

Personal tabs can be accessed anytime from any device, even offline.
Learn more »
Give kudos to tab author, rate the tab!
1 2 3 4 5
comments
print report bad tab
guest
You may want to rate the tab now too:
select rating
Wanna post a correction for this tab? Suggest correction