Oops, an error
Loading. Please wait.

Hold Me Touch Me tab

3,488 views 9 this week
no commentswrite comment
1 2 3 4 5
3 more votes to show rating
add to favorites
×
Save as Personal and add changes to this tab that will be seen only by you. Learn more ›
×
You can save this tab as Personal to edit and correct it or add notes. All changes will be seen only by you. Learn more »
launch autoscroll
font size
0
reset
how to read this tab
guitar tuner
edit
Autoscroll
slow
fast
+/-
esc
set tempo
stop
Author
Unregistered
"KISS"
1978 PAUL STANLEY
HOLD ME TOUCH ME
TAB DE CESAR C.S AZAB

INTRO:

|--2--2--2----3--3----5--5---9-----3----|
|--3---3--3----5--5----7-----------0----|
|--2----2--2----4--4----7---------------|
|--0------------------------------------|
|--0------------------------------------|
|---------------------------------------|


D                          Em
Though I know that you are sleepin'
F#m                           Bm
Girl, there's somethin' I must say
Em     F#m
Though the road may wind
Bm      Em            A
My love will find the way
D                        Em
Many the miles have come between us
F#m                       Bm
And the days, they come and go
Em             F#m
Still with all we feel
Bm      F#m    Em        A
It never really shows

CORO

D    F#m   Em   A     F#m         Bm        Em        A
Hold me,  touch me , and think of me when we're apart
D    F#m                Em        A
Hold me, baby won't you touch me
F#m          Bm             Em
And think of me here in the night
         A
And you know it'll be alright

|--2--2--2---2--2--2--3--3--3-5--|
|--3---3--3---3--3-----3--3---5--|
|--2----2--2---4--4-----4--4--6--|
|--0--------------------------7--|
|--0--------------------------7--|
|--0--------------------------5--|

D                     Em
Though the time apart seems endless
F#m                       Bm
All my thoughts remain with you
Em            F#m
I believe one day
Bm            F#m           Em     A
We'll make our dreams come true
D                   Em
Our goodbyes go on forever
F#m                       Bm
And with all that we may say
Em             F#m
Till tomorrow comes
Bm         F#m        Em   A
We'll dream of yesterday

CORO

D     F#m                Em      A
Hold me, baby won't you touch me
F#m          Bm             Em   A
And think of me when we're apart
D     F#m                 Em     A
Hold me, baby won't you touch me
F#m           Bm                Em
And think of me here in the night
            A
And you know it'll be alright

SOLO

|--------------------------------------------------------------------------|
|--15----14-15---14---14---------19--17------14---------17--15--14---------|
|------------------------14-16-----------------16-14--------------16-14----|
|--------------------------------------------------------------------------|
|--------------------------------------------------------------------------|
|--------------------------------------------------------------------------|


|----------19--17--19--17----22-21-19-17-19--------------------------------|
|--19--17------------------------------------19-17-15-17-------15-17-15----|
|---------------------------------------------------------14-16------------|
|--------------------------------------------------------------------------|
|--------------------------------------------------------------------------|
|--------------------------------------------------------------------------|

|-----------------19-------------------------------------------------------|
|--19-20-19-17--17-------19-17-15---------20-19-17--17---20-19-17--15------|
|-------------19------------------16-14-----------19-------------19--------|
|--------------------------------------------------------------------------|
|--------------------------------------------------------------------------|
|--------------------------------------------------------------------------|

|-----------------19---21------15-14-------15-14--15-------22----|
|--19191919-17-15--------19---------17-15-------17---------------|
|----------------------------------------------------------------|
|----------------------------------------------------------------|
|----------------------------------------------------------------|
|----------------------------------------------------------------|

BIEN VA DEDICADO CON TODO MI AMOR Y CARIÑO A MI LINDA NOVIA QUE AMO COMO UN LOCO Y A LA 
QUIERO COMO MI COMPAÑERA POR SIEMPRE, MI HERMOSA AZAB, ES MI MOTOR Y RECUERDA MI NIÑA 
"HAREMOS REALIDAD NUESTROS SUEÑOS" TE AMO, POR SIEMPRE JUNTOS.

ES UN GRAN TEMA Y EL SOLO ES REALMENTE HERMOSO, DISFRUTENLO.

            
            
Suggest correction
Creating personal tab
Creating personal tab
You can edit any tab online and save it as your Personal.

You can edit, replace or remove any tab part or add personal notes – all changes will be seen only by you.

Personal tabs can be accessed anytime from any device, even offline.
Learn more »
Give kudos to tab author, rate the tab!
1 2 3 4 5
comments
print report bad tab
guest
Wanna post a correction for this tab? Suggest correction