Oops, an error
Loading. Please wait.

No One In The World intro tab

1,882 views 1 this week
2 commentsread comments
1 2 3 4 5
2 more votes to show rating
add to favorites
×
Save as Personal and add changes to this tab that will be seen only by you. Learn more ›
×
You can save this tab as Personal to edit and correct it or add notes. All changes will be seen only by you. Learn more »
launch autoscroll
font size
0
reset
how to read this tab
guitar tuner
edit
Autoscroll
slow
fast
+/-
esc
set tempo
stop
Author
Difficulty
paul weller no one in the world

ok guys be kind this is just a fraction of the tab I'm hoping by adding this much 
can try to help finish it by adding what goes next if you know
i just figured this bit out and haven't got time to sit and try to figure the rest out
as its not listed i thought this would be better than nothing anywho let me know what you think?

boshamp


Intro


e----6---------6-5--------5--6---------6-5--------5-------------|
B-----8-----8------7---7-------8-----8------7---7---------------|
G-------8-8----------7------------8-8----------7----------------|
D---------------------------------------------------------------|
A---------------------------------------------------------------|
E---------------------------------------------------------------|

            
            
Suggest correction
Creating personal tab
Creating personal tab
You can edit any tab online and save it as your Personal.

You can edit, replace or remove any tab part or add personal notes – all changes will be seen only by you.

Personal tabs can be accessed anytime from any device, even offline.
Learn more »
Give kudos to tab author, rate the tab!
1 2 3 4 5
comments
print report bad tab
2 comments total.
0 reply
tyler487 10 Mar 14, 2008 12:27 PM

dunt sound quite right, but still works. its a great song just wish someone wud tab all of it.

0 reply
JSLee 209 Jun 01, 2008 03:33 AM

It might sound better like this:

e----6---------6-5--------5--6---------6-5--------5-------------|
B-----8-----8------6---6-------8-----8------6---6---------------|
G-------8-8----------7------------8-8----------7----------------|
D---------------------------------------------------------------|
A---------------------------------------------------------------|
E---------------------------------------------------------------|

guest
You may want to rate the tab now too:
select rating
Wanna post a correction for this tab? Suggest correction