Oops, an error
Loading. Please wait.

Porcelain Gods tab

version 2
version 2

Whole song

2,950 views 9 this week
no commentswrite comment
1 2 3 4 5
1 last vote to show rating
add to favorites
×
Save as Personal and add changes to this tab that will be seen only by you. Learn more ›
×
You can save this tab as Personal to edit and correct it or add notes. All changes will be seen only by you. Learn more »
launch autoscroll
font size
0
reset
how to read this tab
guitar tuner
edit
Autoscroll
slow
fast
+/-
esc
set tempo
stop
Song: Porcelain Gods
Artist: Paul Weller
Album: Stanley Road

Tunning: Standard

Tabbed By: Indie Nation




Intro:

e|----------------------------|--------------------------|
B|----------------------------|--------------------------|
G|---------------------0------|--------------------------|
D|-----------0------------2---|----------0---------2h4---|
A|------2h4-------2h4---------|-----2h4-------2h4--------|
E|--0-------------------------|-0------------------------|

e|--------------------------|--------------------------|
B|--------------------------|--------------------------|
G|-------------------0------|--------------------------|
D|-----------0----------2---|----------0---------------|
A|------2h4-----------------|-----2h4-------4~~~-------|
E|--0-----------------------|-0------------------------|


Verse:

e|--------------------------|---------------------------|
B|--------------------------|---------------------------|
G|--------------------------|---------------------------|
D|-----------0--------------|-----------0--------2h4----|
A|------2\4-------4b--------|------2\4-------2h4--------|
E|--0-----------------------|-0-0-----------------------|

e|--------------------------|---------------------------|
B|--------------------------|---------------------------|
G|--------------------------|---------------------------|
D|-----------0--------------|-----------0--------2h4----|
A|------2\4-------4b--------|------2\4-------2h4--------|
E|--0-----------------------|-0-0-----------------------|

e|--------------------------|---------------------------|
B|--------------------------|----------------0----------|
G|--------------------------|----------------0-4-2-0----|
D|-----------0--------------|-----------0------4-2-0----|
A|------2\4-------4b--------|------2\4------------------|
E|--0-----------------------|-0-0-----------------------|



Pre-Chorus:

e|------------9---------------|-------------9------------|
B|----------------------------|--------------------------|
G|-------4\9---------9/0------|--------4\9---------9/0---|
D|--2-------------------------|---2----------------------|
A|--0-------------------------|---0----------------------|
E|----------------------------|--------------------------|

e|------------7---------------|-------------7--------------|
B|----------------------------|----------------------------|
G|--0----4\7---------7/0------|---0----4\7---------7/0-----|
D|--0-------------------------|---0------------------------|
A|--x-------------------------|---x------------------------|
E|--3----------------------0--|---3---------------------0--|

e|------------9---------------|-------------9------------|
B|----------------------------|--------------------------|
G|-------4\9---------9/0------|--------4\9---------9/0---|
D|--2-------------------------|---2----------------------|
A|--0-------------------------|---0----------------------|
E|----------------------------|--------------------------|

e|------------7---------------|-------------7------------|
B|----------------------------|--------------------------|
G|--0----4\7---------7/0------|---0----4\7---------------|
D|--0-------------------------|---0----------------------|
A|--x-------------------------|---x----------------------|
E|--3----------------------0--|---3----------------------|


Chorus:

e|--2-----------------------|-------2-------------2p0--|
B|--2-----------------------|----------3---------------|
G|--2-----------------------|---2--------------2-------|
D|--0-----------------------|---0-----------0----------|
A|--------------------------|--------------------------|
E|--------------------------|--------------------------|

e|-----2--------------------|-------2------------------|
B|--4------4----------------|-----------4--------------|
G|--2----------------2------|---------------2----------|
D|--4-----------------------|---4---------------4------|
A|--------------------------|--------------------------|
E|--------------------------|--------------------------|

e|--3-----------------------|---------2---------0------|
B|--3------3----------------|------------3-------------|
G|--2----------2------------|---2--2--------2-----0----|
D|--0--------------0--------|---0--0-------------------|
A|--------------------------|--------------------------|
E|--------------------------|--------------------------|

e|-------2------------------|-------2------------------|
B|----------2---------------|-----------2--------------|
G|--2-----------2-----------|--------------------------|
D|--4-----------------------|--------------------------|
A|--4-----------------------|---4----------------------|
E|--2-----------------------|--------------------------|


Verse:

e|--------------------------|---------------------------|
B|--------------------------|---------------------------|
G|--------------------------|---------------------------|
D|-----------0--------2h4---|-----------0--------0------|
A|------2\4-------2h4-------|------2\4-------------2----|
E|--0-----------------------|-0-0-----------------------|

e|--------------------------|----------------3p0--------|
B|--------------------------|----------------3p0--3/2p0-|
G|--------------------------|---------------------3/2p0-|
D|-----------0--------------|-----------0---------------|
A|------2\4-------4b--------|------2\4------------------|
E|-0-0----------------------|-0-0-----------------------|

e|--------------------------|---------------------------|
B|--------------------------|---------------------------|
G|--------------------------|---------------------------|
D|-----------0--------------|-----------0---------------|
A|------2\4-------2\4-------|------2\4--------4b--------|
E|-0-0----------------------|-0-0-----------------------|

e|--------------------------|---------------------------|
B|--------------------------|----------------0----------|
G|--------------------------|----------------0-4-2-0----|
D|-----------0--------------|-----------0------4-2-0----|
A|------2\4------2h4--------|------2\4------------------|
E|--0-----------------------|-0-0-----------------------|

Pre-Chorus:

e|------------9---------------|-------------9------------|
B|----------------------------|--------------------------|
G|-------4\9---------9/0------|--------4\9---------9/0---|
D|--2-------------------------|---2----------------------|
A|--0-------------------------|---0----------------------|
E|----------------------------|--------------------------|

e|------------7---------------|-------------7--------------|
B|----------------------------|----------------------------|
G|--0----4\7---------7/0------|---0----4\7---------7/0-----|
D|--0-------------------------|---0------------------------|
A|--x-------------------------|---x------------------------|
E|--3----------------------0--|---3---------------------0--|

e|------------9---------------|-------------9------------|
B|----------------------------|--------------------------|
G|-------4\9---------9/0------|--------4\9---------9/0---|
D|--2-------------------------|---2----------------------|
A|--0-------------------------|---0----------------------|
E|----------------------------|--------------------------|

e|------------7---------------|-------------7------------|
B|----------------------------|--------------------------|
G|--0----4\7---------7/0------|---0----4\7---------------|
D|--0-------------------------|---0----------------------|
A|--x-------------------------|---x----------------------|
E|--3----------------------0--|---3----------------------|


Chorus:

e|--2-----------------------|-------2-------------2p0--|
B|--2-----------------------|----------3---------------|
G|--2-----------------------|---2--------------2-------|
D|--0-----------------------|---0-----------0----------|
A|--------------------------|--------------------------|
E|--------------------------|--------------------------|

e|-----2--------------------|-------2------------------|
B|--4------4----------------|-----------4--------------|
G|--2----------------2------|---------------2----------|
D|--4-----------------------|---4---------------4------|
A|--------------------------|--------------------------|
E|--------------------------|--------------------------|

e|--3-----------------------|---------2---------0------|
B|--3------3----------------|------------3-------------|
G|--2----------2------------|---2--2--------2-----0----|
D|--0--------------0--------|---0--0-------------------|
A|--------------------------|--------------------------|
E|--------------------------|--------------------------|

e|-------2------------------|-------2------------------|
B|----------2---------------|-----------2--------------|
G|--2-----------2-----------|--------------------------|
D|--4-----------------------|--------------------------|
A|--4-----------------------|---4----------------------|
E|--2-----------------------|--------------------------|

Break:

e|---------------------------|----------------------------|
B|-------------------------0-|--------------------------0-|
G|-2h4-4--4--4-4-4----4--4-0-|-2h4-4--4--4-4-4--4--4--4-0-|
D|---------------------------|--------------------------0-|
A|---------------------------|----------------------------|
E|---------------------------|----------------------------|

e|-------------------------|----------------------------|
B|---------x-x-----------0-|------------3-3-3-3--3--0-0-|
G|-2h4-4-4-x-x-4----4--4-0-|-2h4---4--4-------------0-0-|
D|---------x-x-------------|----------------------------|
A|-------------------------|----------------------------|
E|-------------------------|----------------------------|

e|-----------------------|---------------------------|-----------------------|
B|---------------------0-|-----------------0---------|------0----------------|
G|-2h4---------4--4--4-0-|-2-4----x-4------0--9b11---|-11r9-0---7----------7-|
D|-----------------------|------x----------0---------|--------7------7h8h9---|
A|-----------------------|---------------------------|-----------------------|
E|-----------------------|---------------------------|-----------------------|

e|-----0--0---0---0----|-----------|---0--0----0--0--------0--|
B|-----0---------------|-----------|---0-------0--0-----------|
G|-----9----8---6---4--|--(4)------|---9----8--6--2-----------|
D|---------------------|-----------|--------------------------|
A|---------------------|-----------|--------------------------|
E|---------------------|-----------|--------------------------|

e|----------------------------|--------------------------|
B|----------------------------|--------------------------|
G|---------------------0------|--------------------------|
D|-----------0------------2---|----------0---------2h4---|
A|------2h4-------2h4---------|-----2h4-------2h4--------|
E|--0-------------------------|-0------------------------|

e|--------------------------|--------------------------|
B|--------------------------|--------------------------|
G|-------------------0------|--------------------------|
D|-----------0----------2---|----------0---------------|
A|------2h4-----------------|-----2h4-------4~~~-------|
E|--0-----------------------|-0------------------------|



Verse:

e|--------------------------|---------------------------|
B|--------------------------|---------------------------|
G|--------------------------|---------------------------|
D|-----------0--------------|-----------0--------2h4----|
A|------2\4-------4b--------|------2\4-------2h4--------|
E|--0-----------------------|-0-0-----------------------|

e|--------------------------|---------------------------|
B|--------------------------|---------------------------|
G|--------------------------|---------------------------|
D|-----------0--------------|-----------0--------2h4----|
A|------2\4-------4b--------|------2\4-------2h4--------|
E|--0-----------------------|-0-0-----------------------|

e|--------------------------|---------------------------|
B|--------------------------|----------------0----------|
G|--------------------------|----------------0-4-2-0----|
D|-----------0--------------|-----------0------4-2-0----|
A|------2\4-------4b--------|------2\4------------------|
E|--0-----------------------|-0-0-----------------------|



Pre-Chorus:

e|------------9---------------|-------------9------------|
B|----------------------------|--------------------------|
G|-------4\9---------9/0------|--------4\9---------9/0---|
D|--2-------------------------|---2----------------------|
A|--0-------------------------|---0----------------------|
E|----------------------------|--------------------------|

e|------------7---------------|-------------7--------------|
B|----------------------------|----------------------------|
G|--0----4\7---------7/0------|---0----4\7---------7/0-----|
D|--0-------------------------|---0------------------------|
A|--x-------------------------|---x------------------------|
E|--3----------------------0--|---3---------------------0--|

e|------------9---------------|-------------9------------|
B|----------------------------|--------------------------|
G|-------4\9---------9/0------|--------4\9---------9/0---|
D|--2-------------------------|---2----------------------|
A|--0-------------------------|---0----------------------|
E|----------------------------|--------------------------|

e|------------7---------------|-------------7------------|
B|----------------------------|--------------------------|
G|--0----4\7---------7/0------|---0----4\7---------------|
D|--0-------------------------|---0----------------------|
A|--x-------------------------|---x----------------------|
E|--3----------------------0--|---3----------------------|


Chorus:

e|--2-----------------------|-------2-------------2p0--|
B|--2-----------------------|----------3---------------|
G|--2-----------------------|---2--------------2-------|
D|--0-----------------------|---0-----------0----------|
A|--------------------------|--------------------------|
E|--------------------------|--------------------------|

e|-----2--------------------|-------2------------------|
B|--4------4----------------|-----------4--------------|
G|--2----------------2------|---------------2----------|
D|--4-----------------------|---4---------------4------|
A|--------------------------|--------------------------|
E|--------------------------|--------------------------|

e|--3-----------------------|---------2---------0------|
B|--3------3----------------|------------3-------------|
G|--2----------2------------|---2--2--------2-----0----|
D|--0--------------0--------|---0--0-------------------|
A|--------------------------|--------------------------|
E|--------------------------|--------------------------|

e|-------2------------------|-------2------------------|
B|----------2---------------|-----------2--------------|
G|--2-----------2-----------|---2-------2--------------|
D|--4-----------------------|---2----------------------|
A|--4-----------------------|---4----------------------|
E|--2-----------------------|--------------------------|


Break:

e|----------------------------|--------------------------|
B|----------------------------|--------------------------|
G|---------------------0------|--------------------------|
D|-----------0------------2---|----------0---------2h4---|
A|------2h4-------2h4---------|-----2h4-------2h4--------|
E|--0-------------------------|-0------------------------|

e|--------------------------|--------------------------|
B|--------------------------|--------------------------|
G|-------------------0------|--------------------------|
D|-----------0----------2---|----------0---------------|
A|------2h4-----------------|-----2h4-------4~~~-------|
E|--0-----------------------|-0------------------------|

e|----------------------------|--------------------------|
B|----------------------------|--------------------------|
G|---------------------0------|--------------------------|
D|-----------0------------2---|----------0---------2h4---|
A|------2h4-------2h4---------|-----2h4-------2h4--------|
E|--0-------------------------|-0------------------------|

e|--------------------------|--------------------------|
B|--------------------------|--------------------------|
G|-------------------0------|--------------------------|
D|-----------0----------2---|----------0---------------|
A|------2h4-----------------|-----2h4-------4~~~-------|
E|--0-----------------------|-0------------------------|

Verse:

e|--------------------------|---------------------------|
B|--------------------------|---------------------------|
G|--------------------------|---------------------------|
D|-----------0--------------|-----------0--------2h4----|
A|------2\4-------4b--------|------2\4-------2h4--------|
E|--0-----------------------|-0-0-----------------------|

e|--------------------------|---------------------------|
B|--------------------------|---------------------------|
G|--------------------------|---------------------------|
D|-----------0--------------|-----------0--------2h4----|
A|------2\4-------4b--------|------2\4-------2h4--------|
E|--0-----------------------|-0-0-----------------------|

e|--------------------------|---------------------------|
B|--------------------------|---------------------------|
G|--------------------------|---------------------------|
D|-----------0--------------|-----------0--------2h4----|
A|------2\4-------4b--------|------2\4-------2h4--------|
E|--0-----------------------|-0-0-----------------------|

e|--------------------------|---------------------------|
B|--------------------------|---------------------------|
G|--------------------------|---------------------------|
D|-----------0--------------|-----------0--------2h4----|
A|------2\4-------4b--------|------2\4-------2h4--------|
E|--0-----------------------|-0-0-----------------------|


Repeat To Fade...

            
            
Suggest correction
Creating personal tab
Creating personal tab
You can edit any tab online and save it as your Personal.

You can edit, replace or remove any tab part or add personal notes – all changes will be seen only by you.

Personal tabs can be accessed anytime from any device, even offline.
Learn more »
Give kudos to tab author, rate the tab!
1 2 3 4 5
comments
print report bad tab
guest
You may want to rate the tab now too:
select rating
Wanna post a correction for this tab? Suggest correction