Oops, an error
Loading. Please wait.

Frontwards chords

version 1
version 1

Whole song

19,491 views 54 this week
3 commentsread comments
1 2 3 4 5
x 14
add to favorites
×
Save as Personal and add changes to this tab that will be seen only by you. Learn more ›
×
You can save this tab as Personal to edit and correct it or add notes. All changes will be seen only by you. Learn more »
launch autoscroll
font size
0
reset
transpose
0
reset
display chords
guitar tuner
edit
Autoscroll
slow
fast
+/-
esc
set tempo
stop
Author
Strumming
There is no strumming pattern for this song yet. and get +5 IQ
#----------------------------------PLEASE NOTE---------------------------------#
#This file is the author's own work and represents their interpretation of the #
#song. You may only use this file for private study, scholarship, or research. #
#------------------------------------------------------------------------------#
From: rte@uva.pcmail.virginia.edu

PAVEMENT "Frontwards"

Intro part       (X4)
e--------------------
B*-3------3---3-----*
G--2----2---2---0----
D--0-----------------
A*------------------*
E--------------------

                      (X3)
e----5-10---5----------||----|
B*-3----------3-3-3-3-*||-3--|
G----------------------||-2--|
D----------------------||-0--|
A---------------------*||----|
E----------------------||----|

VERSE

         D                       A
I am the only one, searching for you,

             G                          D
and if I get caught, then the search is through

        D                         
and the stories you hear, you know they never add up

A                                      G
I hear the natives fussin' at the data chart,


be quiet the weather's on the night news...


CHORUS

D            A              G             E
     Antique homes, plastic cones, stolen rims

                  D
are they alloy or chrome,

D                 A                G 
     Well Ive got style, miles and miles,

        E
so much style that its wasted,

D            E
     so much style that its wasted

D            E
     so much style that its waste--------

        G          E
--------ed

QUASI-SOLO-TYPE-THING
                                                           (X2)
e--------------------------------------------------------------
B-5~3~5~3~5~3--0-0--0-0------8~7~8~7~8~7~8-7-8-9\--------------
G-----------------------2------------------------\-------------


2nd VERSE
---------

She's the only one, who always inhales
Paris is stale
And it's war if we fail

And in the migrant hotels, they never sleep,
they never will
their souls are crumbling like a dirt clod hold,
your cigarette cuts to the inside

Antique homes, plastic cones, stolen rims,
are they alloy or chrome,
Well ive got style, miles and miles
So much style that its leavin
It's pattern's torn and we're weavin'
This battle's torn and we're weavin'

            
            
Suggest correction
Creating personal tab
Creating personal tab
You can edit any tab online and save it as your Personal.

You can edit, replace or remove any tab part or add personal notes – all changes will be seen only by you.

Personal tabs can be accessed anytime from any device, even offline.
Learn more »
comments
print report bad tab
3 comments total.
0 reply
dmason 10 Feb 09, 2006 01:18 PM

Awesome tab, but the opening doesn't make sense to me.

0 reply
pinoyinahalf 40 Oct 11, 2008 05:16 PM

dmason, i'm saying this for your 2 year old post and for anyone who thinks the same from here on out.

The intro, and the quasi-solo as well, are played while the regular chords are being played soo.

GTR 1
D A G D
GTR2
------------------------------------------------------------------------
-3------3---3------3------3---3------3------3---3------3------3---3-----
-2----2---2---0----2----2---2---0----2----2---2---0----2----2---2---0---
-0-----------------0-----------------0-----------------0----------------
------------------------------------------------------------------------
------------------------------------------------------------------------

The same goes for the other bit of the solo that you play 3 times, with the last Dsus2 landing on the final D.

The "quasi-solo" follows the same line with the chords for GTR 1 probably being
D - A - G - E

0 reply
pinoyinahalf 40 Oct 11, 2008 05:18 PM

correction to my post:

GTR 1 (chords)
D------------------A----------------G------------------D---------------
GTR2
------------------------------------------------------------------------
-3------3---3------3------3---3------3------3---3------3------3---3-----
-2----2---2---0----2----2---2---0----2----2---2---0----2----2---2---0---
-0-----------------0-----------------0-----------------0----------------
------------------------------------------------------------------------
------------------------------------------------------------------------

guest
You may want to rate the tab now too:
select rating
Wanna post a correction for this tab? Suggest correction