Oops, an error
Loading. Please wait.

Silent Kit tab

18,340 views 3 this week
4 commentsread comments
1 2 3 4 5
x 3
add to favorites
×
Save as Personal and add changes to this tab that will be seen only by you. Learn more ›
×
You can save this tab as Personal to edit and correct it or add notes. All changes will be seen only by you. Learn more »
launch autoscroll
font size
0
reset
how to read this tab
guitar tuner
edit
Autoscroll
slow
fast
+/-
esc
set tempo
stop
Difficulty
intermediate
Pavement
Silent Kit
Crooked Rain, Crooked Rain
Stephen Malkmus

D5 00023X (or it might be a full D major chord, I don't know which)

A  X0222X      Bmin X24432     E5 22245X     F#5 44467X


Inro, after the messy part

E--------------------------------------------------------------------|
B-2-2---3---------5-5---4--------3-3-3-3-3-3-4-3---2-----------------|
G-2-2---2---------2-2---2--------2-2-2-2-2-2-2-2---2-----------------|  repeat
D-2-2---2---------2-2---2--------2-2-2-2-2-2-2-2---2-----------------|
A-0-0---0---------0-0---0--------0-0-0-0-0-0-0-0---0-----------------|
D--------------------------------------------------------------------|

 D5           A5               D5              A5
E--------------------------------------------------------------------|
B-------------3---2-2-2-5-/7-----------------------------------------|
G-5---5-5-4-2------------------5---5-5-5-5-4-2-----------------------|
D----------------------------------------------0---2-2--2------------|
A--------------------------------------------------------------------|
D--------------------------------------------------------------------|

 D5            A5              D5              A5
E--------------------------------------------------------------------|
B---------------/9-7-3-5-/7------------------------------------------|
G-5-----5-4-2------------------5---5-5-5-5-4-2-2---------------------|
D----------------------------------------------2---------------------|
A----------------------------------------------0---------------------|
D--------------------------------------------------------------------|

 Bmin                             D5
E--------------------------------------------------------------------|
B--------------------------------------------------------------------|
G-4-4-6-4-6-6-6-4-4-4-6-4-6-6-6-4-4-4-6-4-6-6-6-4-4-4-6-4-6-6-4-2----|
D--------------------------------------------------------------------|
A--------------------------------------------------------------------|
D--------------------------------------------------------------------|

For this part you can also play the open D string with the 4s and 6s
if you want

verse

A           D5
Silence kid no one to remind you

A                  D5
You got no heel no reels to remind you

A                E5                 F#5         D5
Silent kid don't take your pawnshop home on the road god damn you

A                E5                 D5   A
Silent kid don't lose your graceful tone

For the "this is the city life" part, one guitar plays that 4 and 6th fret
thing, and the other plays the Bmin and D5 chords exactly like before

2nd verse: same as the first

the 4/4 section of the song ends on an A chord, then the song changes
to 3/4 time

A           D5         A          Bmin                   D5       A
Hand me the drum stick snare kick blues call upon I knew myself in

A        D5        A       Bmin  D5
Into the spotlight ecstasy feels

A                   Bmin                 D5     D5      D5     D5       A
so warm inside till five hours later I am chewin screwin myself with my hand

Thats it

            
            
Suggest correction
Creating personal tab
Creating personal tab
You can edit any tab online and save it as your Personal.

You can edit, replace or remove any tab part or add personal notes – all changes will be seen only by you.

Personal tabs can be accessed anytime from any device, even offline.
Learn more »
Give kudos to tab author, rate the tab!
1 2 3 4 5
comments
print report bad tab
4 comments total. Showing first comments.
-1 reply
Repitition 10 Mar 12, 2008 07:11 PM

It's called Silence Kid

0 reply
cubs 321 May 16, 2008 02:23 PM

you forgot the guitar fill on the 3/4 part
its something like:
E------------------------------------|
B------------------------------------|
G-6p4-6p4-6p4-6p4-2-----6------------|
D------------------------------------|
A------------------------------------|
D------------------------------------|
played while the other guitar plays the Bm etc..
other than that, great tab

0 reply
Dangerousmind 10 Oct 26, 2008 10:10 AM

The song name is silence kit

guest
Wanna post a correction for this tab? Suggest correction