Oops, an error
Loading. Please wait.

Jellyfish tab

by Paws
1,190 views 9 this week
1 commentread comment
1 2 3 4 5
1 last vote to show rating
add to favorites
×
Save as Personal and add changes to this tab that will be seen only by you. Learn more ›
×
You can save this tab as Personal to edit and correct it or add notes. All changes will be seen only by you. Learn more »
launch autoscroll
font size
0
reset
how to read this tab
guitar tuner
edit
Autoscroll
slow
fast
+/-
esc
set tempo
stop
Author
Difficulty
-------------------------------------------------------------------------------------------------------------
                             JELLYFISH - PAWS
-------------------------------------------------------------------------------------------------------------
Tabbed by: Bouch3t
E-mail: gbuxey94@gmail.com



Tuning: STANDARD
Listen to the track for timings
Lyrics posted below

Intro (x2)     
e|---0-----------0-------2-------55----------------------------------------------------------------|
B|---0-----------0-------2-------55-(not on 2nd time)----------------------------------------------|
G|---1---------1-1-111---3-------66--666-----------------------------------------------------------|
D|-2-2--222-2--2-2-222-4-4-444-7-77--777-----------------------------------------------------------|
A|-2-2--222-2--2-2-222-4-4-444-7-77--777-----------------------------------------------------------|
E|-0-0--000-0--0-0-000-2-2-222-5-55--555-----------------------------------------------------------|

Verse (Same as Intro(x4)     
e|---0-----------0-------2-------55----------------------------------------------------------------|
B|---0-----------0-------2-------55----------------------------------------------------------------|
G|---1---------1-1-111---3-------66--666-----------------------------------------------------------|
D|-2-2--222-2--2-2-222-4-4-444-7-77--777-----------------------------------------------------------|
A|-2-2--222-2--2-2-222-4-4-444-7-77--777-----------------------------------------------------------|
E|-0-0--000-0--0-0-000-2-2-222-5-55--555-----------------------------------------------------------|

Chorus (x4)
e|-0--22--55--55555--------------------------------------------------------------------|
B|-0--22--55--55555--------------------------------------------------------------------|
G|-1--33--66--66666--------------------------------------------------------------------|
D|-2--44--77--77777--------------------------------------------------------------------|
A|-2--44--77--77777--------------------------------------------------------------------|
E|-0--22--55--55555--------------------------------------------------------------------|

Bridge (x4)
e|------------------0-0-0000-00-000--------------------0000000000000000---------------------------|
B|-6-6-6666-66-666--0-0-0000-00-000--44444444-22222222-0000000000000000---------------------------|
G|-6-6-6666-66-666--1-1-1111-11-111--44444444-22222222-1111111111111111---------------------------|
D|-6-6-6666-66-666--2-2-2222-22-222--44444444-22222222-2222222222222222---------------------------|
A|-4-4-4444-44-444--2-2-2222-22-222--22222222-00000000-2222222222222222---------------------------|
E|------------------0-0-0000-00-000--------------------0000000000000000---------------------------|

Outro
e|---------------------------------------------------------------------------|
B|---------------------------------------------------------------------------|
G|-1-1--555----1-1 -888------------------------------------------------------|
D|-2-2--666----2-2--999------------------------------------------------------|
A|-2-2--666----2-2--999------------------------------------------------------|
E|-0-0--444----0-0--777------------------------------------------------------|

STRUCTURE:

Intro
Verse
Chorus
Verse
Chorus
Bridge
Chorus
Outro

************************************

| /   slide up
| \   slide down
| h   hammer-on
| p   pull-off
| ~   vibrato
| +   harmonic
| x   Mute note
| b   Bend
| pb  Pre-bend
| br  Bend release
| pbr Pre-bend release
| brb Bend release bend

************************************

Lyrics:

Snow against my bones, you tried to keep me warm.
When I had no place to go.
Why do I feel safe curled in the foetal position?
I ripped you apart with no intention.

Jellyfish I don’t believe.
When you say that you need me, like salt water sea.
How can I believe you?
When you say that you love me.

Don’t take it hard there are better fish in the sea.
Soon you’ll be in retreat.
I’m so sorry you got caught in my net.
Please don’t think I don’t regret.

Jellyfish I don’t believe.
When you say that you need me, like salt water sea.
How can I believe you?
When you say that you love me.

So go, hide in your cave.
That’s cave spelled with a “K”
I hope that you figure out.
That you are better off without.

Jellyfish I don’t believe.
When you say that you need me, like salt water sea.
How can I believe you?
When you say that you love me.

            
            
Suggest correction
Creating personal tab
Creating personal tab
You can edit any tab online and save it as your Personal.

You can edit, replace or remove any tab part or add personal notes – all changes will be seen only by you.

Personal tabs can be accessed anytime from any device, even offline.
Learn more »
Give kudos to tab author, rate the tab!
1 2 3 4 5
comments
print report bad tab
1 comment total.
+1 reply
SirFartsalot 32 Jun 06, 2017 08:03 AM

Thanks so much! Greatly appreciated

guest
You may want to rate the tab now too:
select rating
Wanna post a correction for this tab? Suggest correction