Oops, an error
Loading. Please wait.

Fly Away tab

by PAX217
108 views 1 this week
no commentswrite comment
1 2 3 4 5
3 more votes to show rating
add to favorites
×
Save as Personal and add changes to this tab that will be seen only by you. Learn more ›
×
You can save this tab as Personal to edit and correct it or add notes. All changes will be seen only by you. Learn more »
launch autoscroll
font size
0
reset
how to read this tab
guitar tuner
edit
Autoscroll
slow
fast
+/-
esc
set tempo
stop
Song:      Fly Away
Artist:    Pax217
Album:     Engage
()=Artificial Harmonic

Intro/Verse:
E---------------------------------|
B---------------------------------|
G---------------------------------|
D---------------------------------|x8
A---------------------------------|
D-4-5-5-4-(4)-(4)-(4)-(4)-(4)-(4)-|

Pre Chorus:
E-------------------------------------------------|
B-7-7-7-7-8-8-8-8-8-8-8-8-7-7-7-7-8-8-8-8-8-8-8-8-|
G-x-x-x-x-x-x-x-x-x-x-x-x-x-x-x-x-x-x-x-x-x-x-x-x-|
D-4-4-4-4-5-5-5-5-5-5-5-5-4-4-4-4-5-5-5-5-5-5-5-5-|
A-------------------------------------------------|
D-------------------------------------------------|

Chorus:
E-------------------------------|------------|----------------------------------|
B-------------------------------|------------|----------------------------------|
G-------------------------------|------------|-------12-12-12-12-12-12-12-12-12-|
D-5-4-0-------------------------|x4-then-this|-5-4-0-12-12-12-12-12-12-12-12-12-|
A-5-4-0-(5)-(5)-(5)-(5)-(5)-(5)-|------------|-5-4-0-10-10-10-10-10-10-10-10-10-|
D-5-4-0-------------------------|------------|-5-4-0-10-10-10-10-10-10-10-10-10-|

E----------------------------------------------------------------------------------|
B----------------------------------------------------------------------------------|
G-11-11-11-11-11-11-11-11-11-12-12-12-12-12-12-12-12-12-11-11-11-11-11-11-11-11-11-|
D-12-12-12-12-12-12-12-12-12-12-12-12-12-12-12-12-12-12-12-12-12-12-12-12-12-12-12-|
A-10-10-10-10-10-10-10-10-10-10-10-10-10-10-10-10-10-10-10-10-10-10-10-10-10-10-10-|
D-10-10-10-10-10-10-10-10-10-10-10-10-10-10-10-10-10-10-10-10-10-10-10-10-10-10-10-|

Bridge:
E---|
B---|
G---|
D-4-|Play many times
A---|
D---|

Then do Pre Chorus
Then Chorus then this
[]=play each chord many times
Last Verse:
E----------------------------------------------------------|
B----------------------------------------------------------|
G-[12-11-9-7--12-11-9-7]---9-9-9-9-9-11-7---9-9-9-9-9-11-7-|
D--[x--x-x-x---x--x-x-x]---x-x-x-x-x--x-x---9-9-9-9-9--x-x-|
A-[10--9-7-5--10--9-7-5]---7-7-7-7-7--9-5---7-7-7-7-7--9-5-|
D----------------------------------------------------------|

            
            
Suggest correction
Creating personal tab
Creating personal tab
You can edit any tab online and save it as your Personal.

You can edit, replace or remove any tab part or add personal notes – all changes will be seen only by you.

Personal tabs can be accessed anytime from any device, even offline.
Learn more »
Give kudos to tab author, rate the tab!
1 2 3 4 5
comments
print report bad tab
guest
You may want to rate the tab now too:
select rating
Wanna post a correction for this tab? Suggest correction