Oops, an error
Loading. Please wait.

Rain tab

19,525 views 120 this week
no commentswrite comment
1 2 3 4 5
x 8
add to favorites
×
Save as Personal and add changes to this tab that will be seen only by you. Learn more ›
×
You can save this tab as Personal to edit and correct it or add notes. All changes will be seen only by you. Learn more »
launch autoscroll
font size
0
reset
how to read this tab
guitar tuner
edit
Autoscroll
slow
fast
+/-
esc
set tempo
stop
Intro:

(clean or low distortion)
(3x)
D|-----0-----------------------------------------0-------------------------------------|
A|-------0-----------0---------------0---------4---4-----------------------------------|
F|---------2-------2---2---2-------4---4-----4-------4---------------------------------|
C|---2-----------2-------2-------4-----------------------------------------------------|
G|-0---------------------------------------4-------------------------------------------|
D|-----------2-----------------4-------------------------------------------------------|

D|-----0---------------------------------0---------------------------------------------|
A|-------0-----------0---------------0---4---------------------------------------------|
F|---------2-------2---2---2-------4-----4---------------------------------------------|
C|---2-----------2-------2-------4-------0---------------------------------------------|
G|-0-------------------------------------4---------------------------------------------|
D|-----------2-----------------4-------------------------------------------------------|

(distorted)
D|-------------------------------------------------------------------------------------|
A|-10-10-9-9-----10-10-9-9-----12-12-10-10-9-9-10-10-9-9-------------------------------|
F|-----------9-9-----------9-9---------------------------9-9-11-11-9-9-8-8-9-9---------|
C|-------------------------------------------------------------------------------------|
G|-------------------------------------------------------------------------------------|
D|-------------------------------------------------------------------------------------|

D|---------------------------------------------12-12-11-11-----------------------------|
A|-10-10-9-9-----10-10-9-9-----12-12-10-10-9-9-------------12-12-14-14-----------9-9---|
F|-----------9-9-----------9-9-----------------------------------------9-9-11-11-------|
C|-------------------------------------------------------------------------------------|
G|-------------------------------------------------------------------------------------|
D|-------------------------------------------------------------------------------------|

D|-------------------------------------------------------------------------------------|
A|-10-10-9-9-----10-10-9-9-----12-12-10-10-9-9-10-10-9-9-------------------------------|
F|-----------9-9-----------9-9---------------------------9-9-11-11-9-9-8-8-9-9---------|
C|-------------------------------------------------------------------------------------|
G|-------------------------------------------------------------------------------------|
D|-------------------------------------------------------------------------------------|

D|---------------------------------------------12-12-11-11-12--------------------------|
A|-10-10-9-9-----10-10-9-9-----12-12-10-10-9-9-----------------------------------------|
F|-----------9-9-----------9-9---------------------------------------------------------|
C|-------------------------------------------------------------------------------------|
G|-------------------------------------------------------------------------------------|
D|-------------------------------------------------------------------------------------|

Verse:

(distorted)
(3x)
D|-----0---------------------------------------0-----0---------------------------------|
A|-------0-------0-----0-------------0-------4---4-----4-------------------------------|
F|-------------2---2-----2---------4---4---4-------4-----4-----------------------------|
C|---2---------------4-----4-----4-----------------------------------------------------|
G|-0-------------------------------------4---------------------------------------------|
D|---------0-------------------4-------------------------------------------------------|

D|-----0-------------------------------------------------------------------------------|
A|-------0-------0-----0---------------------------------------------------------------|
F|-------------2---2-----2-----4-x-x-4-x-x-4-4-----------------------------------------|
C|---2---------------4-----4---4-x-x-4-x-x-4-4-----------------------------------------|
G|-0---------------------------0-x-x-0-x-x-0-0-----------------------------------------|
D|---------0-------------------4-x-x-4-x-x-4-4-----------------------------------------|

Chorus:

D|-------------------------------------------------------------------------------------|
A|------------------------------4---4-4---4--------------------------------------------|
F|-2---2-2---2-2---2---4---4-4--4---4-4---4--------------------------------------------|
C|-2---2-4---4-4---4---4---4-4--0---0-0---0--------------------------------------------|
G|-0---0-0---0-0---0---0---0-0--4---4-4---4--------------------------------------------|
D|---------------------4---4-4---------------------------------------------------------|

Verse 2:

(distorted)

D|-----0---------------------------------------0-----0---------------------------------|
A|-------0-------0-----0-------------0-------4---4-----4-------------------------------|
F|-------------2---2-----2---------4---4---4-------4-----4-----------------------------|
C|---2---------------4-----4-----4-----------------------------------------------------|
G|-0-------------------------------------4---------------------------------------------|
D|---------0-------------------4-------------------------------------------------------|

D|-----0-------------------------------------------------------------------------------|
A|-------0-------0-----0-------------0-----4---x-4-------------------------------------|
F|-------------2---2-----2---------4---4---4---x-4-------------------------------------|
C|---2---------------4-----4-----4---------0---x-0-------------------------------------|
G|-0-------------------------------------4-----x-4-------------------------------------|
D|---------0-------------------4-------------------------------------------------------|

D|-----0---------------------------------------0-----0---------------------------------|
A|-------0-------0-----0-------------0-------4---4-----4-------------------------------|
F|-------------2---2-----2---------4---4---4-------4-----4-----------------------------|
C|---2---------------4-----4-----4-----------------------------------------------------|
G|-0-------------------------------------4---------------------------------------------|
D|---------0-------------------4-------------------------------------------------------|

D|-----0-------------------------------------------------------------------------------|
A|-------0-------0-----0---------------------------------------------------------------|
F|-------------2---2-----2-----4-x-x-4-x-x-4-4-----------------------------------------|
C|---2---------------4-----4---4-x-x-4-x-x-4-4-----------------------------------------|
G|-0---------------------------0-x-x-0-x-x-0-0-----------------------------------------|
D|---------0-------------------4-x-x-4-x-x-4-4-----------------------------------------|

[Chorus]

Solo:

D|-----------------12---11-9------------------------------11----14-12----16-12---------|
A|-12------9-10-12-----------12-10-9-----------------10-9----12-------14---------------|
F|----9-11---------------------------11-9-------11-9-----------------------------------|
C|--------------------------------------------9----------------------------------------|
G|------------------------------------------7------------------------------------------|
D|-------------------------------------------------------------------------------------|

D|-12-14-0-16-0-17-0-19-0-17-0----------19-------17-------16-------14------------------|
A|-----------------------------16~---16------------------------------------------------|
F|-----------------------------------------20/18----18/16----16/14----14/x-------------|
C|-------------------------------------------------------------------------------------|
G|-------------------------------------------------------------------------------------|
D|-------------------------------------------------------------------------------------|

D|-----------------12-------------------------------x/12-11-12-12/19-17-16~------------|
A|-10-9------12-----------------------------9-10-12------------------------------------|
F|------11-9-11b13----11b13b11p9-11~---9-11--------------------------------------------|
C|-------------------------------------------------------------------------------------|
G|-------------------------------------------------------------------------------------|
D|-------------------------------------------------------------------------------------|

D|-14h15-14----------------19-17-21/24-23-19~---14h16-12-12h14----------12-12h14-11~---|
A|----------17~------17-19-------------------------------------12h14-12----------------|
F|----------------16-------------------------------------------------------------------|
C|-------------------------------------------------------------------------------------|
G|-------------------------------------------------------------------------------------|
D|-------------------------------------------------------------------------------------|

Interlude:

(5x)
D|-----0-----------------------------------------0-------------------------------------|
A|-------0-----------0---------------0---------4---4-----------------------------------|
F|---------2-------2---2---2-------4---4-----4-------4---------------------------------|
C|---2-----------2-------2-------4-----------------------------------------------------|
G|-0---------------------------------------4-------------------------------------------|
D|-----------2-----------------4-------------------------------------------------------|

D|-----0-------------------------------------------------------------------------------|
A|-------0-----------0-----------------------------------------------------------------|
F|---------2-------2---2---2~---4-x-x-4-x-x-4-4----------------------------------------|
C|---2-----------2-------2------4-x-x-4-x-x-4-4----------------------------------------|
G|-0----------------------------0-x-x-0-x-x-0-0----------------------------------------|
D|-----------2------------------4-x-x-4-x-x-4-4----------------------------------------|

[Chorus]

Outro:
[Intro - second part]

            
            
Suggest correction
Creating personal tab
Creating personal tab
You can edit any tab online and save it as your Personal.

You can edit, replace or remove any tab part or add personal notes – all changes will be seen only by you.

Personal tabs can be accessed anytime from any device, even offline.
Learn more »
comments
print report bad tab
guest
You may want to rate the tab now too:
select rating
Wanna post a correction for this tab? Suggest correction