Oops, an error
Loading. Please wait.

Follow Baby bass

version 1
version 1

Whole song

Interactive

by Peace
3,312 views 1 this week
1 commentread comment
1 2 3 4 5
x 5
add to favorites
×
Save as Personal and add changes to this tab that will be seen only by you. Learn more ›
×
You can save this tab as Personal to edit and correct it or add notes. All changes will be seen only by you. Learn more »
launch autoscroll
font size
0
reset
guitar tuner
edit
Autoscroll
slow
fast
+/-
esc
set tempo
stop
Author
Difficulty
I'm 99% sure this is right so enjoy 

Tabbed By: LiamConnolly

Intro
G|---------------------------------------------------------------------------|
D|---------------------------------------------------------------------------|
A|---------------------------------------------------------------------------|
E|---4--4--4--4--4/12--12--12-(x3)-9--9--9--9--9--7--7--7--9--4--------------|

Pre-Verse
G|---------------------------------------------------------------------------|
D|---------------------------------------------------------------------------|
A|---------------------------------------------------------------------------|
E|---4-4-4-4-4/12-12-12-----------(x4)---------------------------------------|


Verse
G|---------------------------------------------------------------------------|
D|---------------------------------------------------------------------------|
A|---------------------------------------------------------------------------|
E|---2/4-4--4-4/12-12--12-12-9-9--9-7-7-7-9----------------------------------|

Chorus
G|---------------------------------------------------------------------------|
D|---------------------------------------------------------------------------|
A|---------------------------------------------------------------------------|
E|---12-12-11-9-7-4--4-1-4-7-1--1--1--4--4--4--------------------------------|


Intro
Pre-Verse
Verse
Chorus 
Intro
Verse
Chorus(played continuously after the second verse) 

            
            
Suggest correction
Creating personal tab
Creating personal tab
You can edit any tab online and save it as your Personal.

You can edit, replace or remove any tab part or add personal notes – all changes will be seen only by you.

Personal tabs can be accessed anytime from any device, even offline.
Learn more »
comments
print report bad tab
1 comment total.
0 reply
aniceiri 10 Dec 12, 2014 07:12 AM

almost perfect, except the 1s in the chorus should be 2s, i think

guest
You may want to rate the tab now too:
select rating
Wanna post a correction for this tab? Suggest correction