Oops, an error
Loading. Please wait.

Follow Baby bass

version 2
version 2

Whole song

Interactive

by Peace
479 views 1 this week
no commentswrite comment
1 2 3 4 5
2 more votes to show rating
add to favorites
×
Save as Personal and add changes to this tab that will be seen only by you. Learn more ›
×
You can save this tab as Personal to edit and correct it or add notes. All changes will be seen only by you. Learn more »
launch autoscroll
font size
0
reset
guitar tuner
edit
Autoscroll
slow
fast
+/-
esc
set tempo
stop
Author
Difficulty
-------------------------------------------------------------------------------
                             FOLLOW BABY - Peace
-------------------------------------------------------------------------------
Tabbed by: AndyRhodes

Tuning: Standard

This looks the same as in their live performances and doesn't sound too far away to me. 
Feel free to suggest any corrections you see necessary - Andy

INTRO
G|---------------------------------------------------------------------------|
D|------------2-2-2----------------------------------------------------------|
A|----------------------------------------------4-4-4-4-2-2-4----------------|
E|--4-4-4-4-4---------------(x3)------------------------------4--------------|

PRE-VERSE
G|---------------------------------------------------------------------------|
D|------------2-2-2----------------------------------------------------------|
A|---------------------------------------------------------------------------|
E|--4-4-4-4-4---------------(x4)---------------------------------------------|

VERSE
G|---------------------------------------------------------------------------|
D|------------2-2-2-2--------------------------------------------------------|
A|--------------------4-4-4-4-2-2-2-4----------------------------------------|
E|--2-4-4-4-4---------------------------------(x8)---------------------------|

CHORUS
G|---------------------------------------------------------------------------|
D|---------------------------------------------------------------------------|
A|--7-7-6-4-2----------2-----------------------------------------------------|
E|------------4--4-2-4---2--2--2--4--4--4------------------------------------|


INTRO
PRE-VERSE
VERSE
CHORUS
INTRO
VERSE
CHORUS (played until the end after second verse)

            
            
Suggest correction
Creating personal tab
Creating personal tab
You can edit any tab online and save it as your Personal.

You can edit, replace or remove any tab part or add personal notes – all changes will be seen only by you.

Personal tabs can be accessed anytime from any device, even offline.
Learn more »
Give kudos to tab author, rate the tab!
1 2 3 4 5
comments
print report bad tab
guest
You may want to rate the tab now too:
select rating
Wanna post a correction for this tab? Suggest correction