Oops, an error
Loading. Please wait.

Lovesick tab

by Peace
4,470 views 1 this week
2 commentsread comments
1 2 3 4 5
x 6
add to favorites
×
Save as Personal and add changes to this tab that will be seen only by you. Learn more ›
×
You can save this tab as Personal to edit and correct it or add notes. All changes will be seen only by you. Learn more »
launch autoscroll
font size
0
reset
how to read this tab
guitar tuner
edit
Autoscroll
slow
fast
+/-
esc
set tempo
stop
Author
Difficulty
Only guitar part in "Lovesick" by Peace. It is a chorus-only part. It is played 
differently live in which there are bends implemented so I may transcribe that too at some point 
so keep a look out.




(/) Slide Up  (\) Slide Down  (h) Hammer On  (p) Pull Off  (b) Bend (r) Release (v) Vibrato


E|--14-12--11--------14-12--11----------------------|
B|------------12----------------12--12-14-12-14-----|
G|--------------------------------------------------|
D|--------------------------------------------------|
A|--------------------------------------------------|
E|--------------------------------------------------|
http://www.guitartabcreator.com

            
            
Suggest correction
Creating personal tab
Creating personal tab
You can edit any tab online and save it as your Personal.

You can edit, replace or remove any tab part or add personal notes – all changes will be seen only by you.

Personal tabs can be accessed anytime from any device, even offline.
Learn more »
comments
print report bad tab
2 comments total.
0 reply
benisalegend123 10 Aug 23, 2013 03:41 PM

your so wrong man
thats the solo part which ive been trying to figure out (thanks for that)
the original chorus goes like this
G|11-9--8-4-----11-9--8-4-4-6-4-8---------------------------------|

0 reply
benisalegend123 10 Aug 23, 2013 03:41 PM

your so wrong man
thats the solo part which ive been trying to figure out (thanks for that)
the original chorus goes like this
G|11-9--8-4-----11-9--8-4-4-6-4-8---------------------------------|

guest
You may want to rate the tab now too:
select rating
Wanna post a correction for this tab? Suggest correction