Oops, an error
Loading. Please wait.

Better Man tab

version 1
version 1

Whole song

Interactive

Video

311,314 views 93 this week
9 commentsread comments
1 2 3 4 5
x 32
add to favorites
×
Save as Personal and add changes to this tab that will be seen only by you. Learn more ›
×
You can save this tab as Personal to edit and correct it or add notes. All changes will be seen only by you. Learn more »
launch autoscroll
font size
0
reset
how to read this tab
guitar tuner
backing track
0:00
0:00
edit
Autoscroll
slow
fast
+/-
esc
set tempo
stop
Author
TABBED BY: Chappo (chap_dogg@hotmail.com) 

This is Pearl Jam’s “Betterman”. It’s a great song. I’m not sure how correct this is 
but it sounds really good. There are a few parts at the end that I am missing but you 
should be able to get it if you listen to the song.


[Verse 1]

e|---------------------------------------------------------|
B|---3---0--------3---0-----------4---0-------4---4---4----|
G|---2-----2------2-----2---------3-----3-------3---3---3--|
D|---------------------------------------------------------|
A|---------------------------------------------------------|
E|-2----------0h2-------------0h4----------4---------------|

Play that part about 4 times then at the ‘he opens the door..’ part play:

           
e|----------------------------------------------------|
B|--6----6-----------8----8----6----6------8---8---8--|
G|--5--5-------------7--7------5—5-------7---7---7----|
D|----------------------------------------------------|
A|----------------------------------------------------|
E|-5-------------7-----------5---------7--------------|


On the 1st chorus, pick through the chords and on the 2nd chorus strum them


[Chorus]

D            A            G  
She lies and says shes in love with him
D           A          G   
Cant find a better man
D             A           G
She dreams in colour she dreams in red
D            A            G
Can’t find a better man

Next is the 2nd verse which is the same as the 1st verse except towards the end where 
instead o f pick you strum these 2 chords (timing not shown)


e|-5--------7-|
B|-6--------8-|
G|-5--------7-|
D|-7--------9-|
A|-8-------10-|
E|-5--------7-|

Then there is another chorus then a part that I’m not too sure about

************************************

| h  Hammer-on

************************************

            
            
Suggest correction
Creating personal tab
Creating personal tab
You can edit any tab online and save it as your Personal.

You can edit, replace or remove any tab part or add personal notes – all changes will be seen only by you.

Personal tabs can be accessed anytime from any device, even offline.
Learn more »
comments
print report bad tab
9 comments total. Showing first comments.
0 reply
leprecorn 10 Aug 10, 2002 08:00 PM

this bit is wrong ok
e|----------------------------------------------------
B|--6----6-----------8----8----6----6------8---8---8--
G|--5--5-------------7--7------5?5-------7---7---7----
D|----------------------------------------------------
A|----------------------------------------------------
E|-5-------------7-----------5---------7--------------

0 reply
MCWolfey19 10 Feb 10, 2003 07:00 PM

that one sux even more...

0 reply
Guitar274 10 Apr 09, 2003 08:00 PM

haha yeah it does

guest
You may want to rate the tab now too:
select rating
Wanna post a correction for this tab? Suggest correction