Oops, an error
Loading. Please wait.
We have Chord Pro version of Yellow Ledbetter.
It's the closest thing you can get to the original song and it has interactive parts. Check out the tab »
×

Yellow Ledbetter solo tab

version 3
version 3

Solo

  • The only other tab o this songs solo was confusing... Show more

Whole song

Interactive

4,652 views 57 this week
no commentswrite comment
1 2 3 4 5
x 4
add to favorites
×
Save as Personal and add changes to this tab that will be seen only by you. Learn more ›
×
You can save this tab as Personal to edit and correct it or add notes. All changes will be seen only by you. Learn more »
launch autoscroll
font size
0
reset
how to read this tab
guitar tuner
backing track
0:00
0:00
edit
Autoscroll
slow
fast
+/-
esc
set tempo
stop
Author
About this tab version
The only other tab o this songs solo was confusing for me and parts of it were incorrect. my tab is simplified yet accurate. Was this info helpful? Yes No
-------------------------------------------------------------------------------
                             Yellow Ledbetter - Pearl Jam
-------------------------------------------------------------------------------
Tabbed by: Zach Smith
E-mail: smithzami@gmail.com

Tuning:EADGBe (standard)

e|---------------------------------------------------------------------------|
B|-----------12--------------------------------------------------------------|
G|----9~~~~~9---11b13~~~11b13~11b13r11-9-11~~~~~9----------------------------|
D|9h11--------------------------------------------11-9-----------------------|
A|-----------------------------------------------------11-9----9b11r9--------|
E|----------------------------------------------------------12--------12-9-12|

e|---------------------------------------------------------------------------|
B|---------------------------------12b14r12~~~12b14b12-----------------------|
G|-----------------------------------------------------13-11b13~~~~~11b13r11-|
D|---------------------------------------------------------------------------|
A|9----------------9~~b~~11~~~~~---------------------------------------------|
E|--12~~~~~-9-12p9-----------------------------------------------------------|

e|---------------------------------------------------------------------------|
B|--------------------------------------12----12-14~~~~~-12-14p12-14p12------|
G|9~~~-11~~~WrWrWrWr~~~-11p9----9-11s13----13--------------------------------|
D|---------------------------11----------------------------------------------|
A|---------------------------------------------------------------------------|
E|---------------------------------------------------------------------------|

e|14b16r14-12----12h14p12~~~~~---------9--------------9------------------------|
B|------------14---------------------9---9-12b14~~~~~---12-9----9--------------|
G|-----------------------------11b13-------------------------11---11p9h11p9----|
D|--------------------------------------------------------------------------11-|
A|-----------------------------------------------------------------------------|
E|-----------------------------------------------------------------------------|

e|---------------------------------------------------------------------------|
B|------------------------------------------------------12----14~~~-12h14----|
G|9~~~--11p9----9-11p9-11b14~~~r11-9----9h11p9~~~-11s13----13----------------|
D|-----------11----------------------11--------------------------------------|
A|---------------------------------------------------------------------------|
E|---------------------------------------------------------------------------|

e|12h14-12h14-12h14-12h14-12h14-12h14~~~~~~~~~~~-----------------------------|
B|---------------------------------------------------------------------------|
G|---------------------------------------------------------------------------|
D|---------------------------------------------------------------------------|
A|---------------------------------------------------------------------------|
E|---------------------------------------------------------------------------|



************************************

| /   slide up
| \   slide down
| h   hammer-on
| p   pull-off
| ~   vibrato
| +   harmonic
| x   Mute note
| b   Bend
| pb  Pre-bend
| br  Bend release
| pbr Pre-bend release
| brb Bend release bend

************************************

            
            
Suggest correction
Creating personal tab
Creating personal tab
You can edit any tab online and save it as your Personal.

You can edit, replace or remove any tab part or add personal notes – all changes will be seen only by you.

Personal tabs can be accessed anytime from any device, even offline.
Learn more »
comments
print report bad tab
guest
You may want to rate the tab now too:
select rating
Wanna post a correction for this tab? Suggest correction