Oops, an error
Loading. Please wait.

Cuerpo Y Alma bass

95 views 1 this week
no commentswrite comment
1 2 3 4 5
3 more votes to show rating
add to favorites
×
Save as Personal and add changes to this tab that will be seen only by you. Learn more ›
×
You can save this tab as Personal to edit and correct it or add notes. All changes will be seen only by you. Learn more »
launch autoscroll
font size
0
reset
guitar tuner
edit
Autoscroll
slow
fast
+/-
esc
set tempo
stop
EL TEMA ESTE NO ES DE PEDRO AZNAR PERO APARECE EN SU DISCO CUERPO Y ALMA.
TENIA QUE SACAR ESTE TEMA Y EN INTERENT SOLO APARECIA LA LETRA ASI QUE
CUANDO LO TERMINE DE SACAR, COMO UNA SEMANA DESPUESPENSE EN SUBIRLO.
YO TENGO UN BAJO DE 6 CUERDAS, PERO EL TAB LO ESCRIBI COMO UNO DE 5 POR
LA NOTA GRAVE DEL ESTRIBILLO. PARA LOS QUE TIENEN UN BAJO DE
4 CUERDAS DE ESCALA LARGA A LA ULTIMA NOTA DEL TEMA NO VAN A LLEGAR POR
QUE ES UN G#...JAJAJA... ES UN FORRO ESTE PEDRO...

EL TEMA EN SI ES FACIL TIENE SOLO 2 BASES + LA INTRO. LO JODIDO ES EL
SOLO Y  EL TIEMPO, POR QUE ESTA EN 6/8. DONDE DICE 'X' LOS PUSE POR
QUE AHI CAE EL TIEMPO. NO HAY QUE TOCARLOS, PERO PODES TOCAR UNA NOTA
MUERTA QUE TE VA A AYUDAR.
LAS NOTAS EN EL SOLO QUE ESTAN ENTRE || (POR EJEMPLO |19-18-16|)
SE TOCAN MAS RAPIDO.


INTRO X 2

G|-------------------------------------|
D|--9-9-X-11-11---11/13-11-11-X9-9-9--X|
A|-------------------------------------|
E|-------------------------------------|
B|-------------------------------------|


VERSO

G|------9-9----9-9---|
D|-------------------|
A|----------7--------|
E|--0----------------|
B|-------------------|


ESTRIBILLO

|----------------|
|----------------|
|--------2---4---|
|-3---5----2-----|
|---3------------|

sOLO

|--16/18-16----------------------------------16-|
|-----------|19-18-16|--------------------------|
|----------------------|19-18-16|-13-14-16-17---|
|-----------------------------------------------|
|-----------------------------------------------|

...CANTA....


|--16/18-16-21-20-18-16----15-18-19-|
|-----------------------18----------|
|-----------------------------------|
|-----------------------------------|
|-----------------------------------|

|---16-18/19/18----/18-16---------------|
|---------------14--------16/18-16------|
|17-------------------------------------|
|---------------------------------------|
|---------------------------------------|

|-----------------------------16-14----|
|-----------------------------------16-|
|-14----------------14-17--------------|
|----16-13-14-16-17-------17-----------|
|--------------------------------------|

|/18-16----|16-18-20|-|18-16-15|-----|
|-------16---------------------------|
|------------------------------------|
|------------------------------------|
|------------------------------------|


|---------------------------------------|
|-|18-16---|----------------------------|
|-|------16|--|------16|----------------|
|-------------|16-18---|---|16-18-14|---|
|---------------------------------------|

PARTE FINAL DEL SOLO. FIJENSE EL RITMO...


|--------------------|--------------|
|-----14-/18-16/18---|--------------|
|--14----------------|--16-14-------|
|--------------------|--------16-14-|
|--------------------|--------------|

-----------16-|--20/19----|-20/19---------|
-------/16----|--------20-|-------17-/20--|
----14--------|-----------|---------------|
-12-----------|-----------|---------------|
--------------|-----------|---------------|

|--------13/14-13---|-----------------|--18-21-23-25--|
|-----14----------14|-------14/16-14--|---------------|
|--14---------------|----14-----------|---------------|
|-------------------|-12--------------|---------------|
|-------------------|-----------------|---------------|

            
            
Suggest correction
Creating personal tab
Creating personal tab
You can edit any tab online and save it as your Personal.

You can edit, replace or remove any tab part or add personal notes – all changes will be seen only by you.

Personal tabs can be accessed anytime from any device, even offline.
Learn more »
Give kudos to tab author, rate the tab!
1 2 3 4 5
comments
print report bad tab
guest
Wanna post a correction for this tab? Suggest correction