Oops, an error
Loading. Please wait.

No Es Una Pena? tab

68 views 1 this week
no commentswrite comment
1 2 3 4 5
3 more votes to show rating
add to favorites
×
Save as Personal and add changes to this tab that will be seen only by you. Learn more ›
×
You can save this tab as Personal to edit and correct it or add notes. All changes will be seen only by you. Learn more »
launch autoscroll
font size
0
reset
how to read this tab
guitar tuner
edit
Autoscroll
slow
fast
+/-
esc
set tempo
stop
G6(Con 5 bemol): E 3-4-2-0-0-0 e


G              G6(Con 5 bemol)
   ¿No te pone triste?
C/G           G
   ¿No te da dolor?
G              G6 (Con 5 bemol)
    La crueldad de unos con otro
C/G           G
    La sombra del renco


G                    A7
    Como a veces sin pensar
C/G             G
    Tomamos el amor
G                Gdim
    Y no lo retribuimos
C/G             G
    ¿No te pone triste?


Las cosas llevan tiempo
No es fácil de explicar
Cuando tan poca gente
Ve al otro como igua


Y sus lagrimas sin fin
Quizás ya no le dejen ver
Lo bello que es el mundo
¿No te pone triste?


Solo: El solo se divide en dos partes


Parte 1: Voz y Violines
G|----------------------------12-|
D|--9--10--12--10--9--12--11-----|


Parte 2: Se van los violines, entra la guitarra

e|-------------------------------12----------------|
B|--------------------------12-10--15-12---12------|
G|--12--11--12--9--11--7-----------------14--14-12-|

e|--------------------15--17/18-17-15-17-15--17/18-17-15-17-15-12-|
B|-----------12-15-17---------------------------------------------|
G|--------12------------------------------------------------------|
D|--12-14---------------------------------------------------------|

e|--15-15-15-18-17-15----17/12---15/10--12/7---------|
B|--15-15-15-17-17-15----17/12---15/10--12/8---0/12--|
G|---------------------------------------------0/12--|


¿No te pone triste?
¿No te da dolor?
La crueldad de unos con otros
La sombra del rencor


Como a veces sin pensar
Tomamos el amor
Y no lo retribuimos
No te pone triste?


Forgetting to give back,
now isn't it a pity


Es tan triste, es tan triste
Triste, triste
No estés triste, no estés triste
Triste, triste

            
            
Suggest correction
Creating personal tab
Creating personal tab
You can edit any tab online and save it as your Personal.

You can edit, replace or remove any tab part or add personal notes – all changes will be seen only by you.

Personal tabs can be accessed anytime from any device, even offline.
Learn more »
Give kudos to tab author, rate the tab!
1 2 3 4 5
comments
print report bad tab
guest
Wanna post a correction for this tab? Suggest correction