Oops, an error
Loading. Please wait.

El Marido De La Peluquera tab

version 2
version 2

Whole song

155 views 6 this week
no commentswrite comment
1 2 3 4 5
3 more votes to show rating
add to favorites
×
Save as Personal and add changes to this tab that will be seen only by you. Learn more ›
×
You can save this tab as Personal to edit and correct it or add notes. All changes will be seen only by you. Learn more »
launch autoscroll
font size
0
reset
how to read this tab
guitar tuner
edit
Autoscroll
slow
fast
+/-
esc
set tempo
stop
          Bm      G            A
De niño bailaba canciones del moro
   Bm              A                     G                 A
El baile venía de adentro y así se inventaba los modos
D          Bm     G         A
De niño soñaba olores profundos
   Bm                  A                      G         A
Las mezclas de espuma, colonia y sudor de unos pechos

  Desnudos          Uhmmmmm....    Creció con su
e -----------------------------------
B --------5-----5-----5-----5------5-
G --------0-----0-----0-----0------0-
D -----------------------------------
A -------5-----------5------------5--
E -------------5-----------5---------

Bm          G       A
Sueño y un día le dijo:
  Bm                 A               G        A
"Acabo de verte y ya sé que nací pa´casarme contigo"
D           Bm       G            A
Matilde mi vida, Matilde mi estrella
  Bm                A                  G               A
Le dijo que sí nos casamos Antoine y bailó para ella.


    Bm        F#
Y abrázame fuerte
   G            A
Que no pueda respirar
   Bm                 F#
Tengo miedo de que un día
        G                        A
Ya no quieras bailar conmigo

Nunca más                                                         Cariño y
e -----------------------------------------------------------------------
B --------5-----5-----5-----5------5-----5-----5-----5----5----5----5----
G --------0-----0-----0-----0------0-----0-----0-----0----0----0----0----
D -----------------------------------------------------------------------
A -------5-----------5------------5----------5-----------5---------5-----
E -------------5-----------5-----------5------------5---------5----------


   Bm       G        A
Ternura, colonias y besos
    Bn                  A                G         A
Te tengo me tienes quisiera morirme agarrado a tus pechos
    D           Bm            G        A
El amor es tan grande tan sincero y sentido
        Bm             A                  G           A
Que un día de lluvia Matilde acabó por tirarse en el rio


    Bm        F#
Y abrázame fuerte
   G            A
Que no pueda respirar
   Bm                 F#
Tengo miedo de que un día
        G                        A
Ya no quieras bailar conmigo

Nunca más                                                         Mejor buenos
e -----------------------------------------------------------------------
B --------5-----5-----5-----5------5-----5-----5-----5----5----5----5----
G --------0-----0-----0-----0------0-----0-----0-----0----0----0----0----
D -----------------------------------------------------------------------
A -------5-----------5------------5----------5-----------5---------5-----
E -------------5-----------5-----------5------------5---------5----------


Bm           G           A
Recuerdos que un pasado perdido
     Bm               A                 G           A
Por eso un buen día Matilde acabó por tirarse en el río
       D                Bm             G        A
Lo que fue tan hermoso que no caiga al olvido
      Bm                   A                 G            A
te estaré recordando por siempre Matilde que tú no te has ido


    Bm        F#
Y abrázame fuerte
   G            A
Que no pueda respirar
   Bm                 F#
Tengo miedo de que un día
        G                        A
Ya no quieras bailar conmigo

    Bm        F#
Y abrázame fuerte
   G            A
Que no pueda respirar
   Bm                 F#
Tengo miedo de que un día
        G                        A
Ya no quieras bailar conmigo

Nunca más... uhm...

Está bien hecha para los que quieran
tocar esta rola de una forma fácil va
con dedicatoria pero prefiero no decirla n.n

            
            
Suggest correction
Creating personal tab
Creating personal tab
You can edit any tab online and save it as your Personal.

You can edit, replace or remove any tab part or add personal notes – all changes will be seen only by you.

Personal tabs can be accessed anytime from any device, even offline.
Learn more »
Give kudos to tab author, rate the tab!
1 2 3 4 5
comments
print report bad tab
guest
Wanna post a correction for this tab? Suggest correction