Oops, an error
Loading. Please wait.

Invention chords

76 views 6 this week
no commentswrite comment
1 2 3 4 5
3 more votes to show rating
add to favorites
×
Save as Personal and add changes to this tab that will be seen only by you. Learn more ›
×
You can save this tab as Personal to edit and correct it or add notes. All changes will be seen only by you. Learn more »
launch autoscroll
font size
0
reset
transpose
0
reset
simplify chords
display chords
guitar tuner
edit
Autoscroll
slow
fast
+/-
esc
set tempo
stop
Strumming
There is no strumming pattern for this song yet. and get +5 IQ
Pedro the Lion - Invention

[Chords]
 - Verse and first part of chorus
Dm       xx0231  /-not used, but can be played instead of the riff
Dsus2/C# x4x230  \-
Bb       x1333x
F        13321x
C        x3201x
Gm       35533x

 - Second part of chorus
F *      x8756x
Fmaj7    x8755x
Bb *     x13331
Bb#11    x13330


[Intro]

Guitar 1

*   Dm                Dsus2/C#          Bb                F
e |-----------------|-----------------|-----------------|-----------------|
B |-----------------|-----------------|-----------------|-----------------|
G |-----------------|-----------------|-----------------|-----------------|
D |---7---7---7---7-|---7---7---7---7-|-----------------|---7---7---7---7-|
A |-5---5---5---5---|-4---4---4---4---|---8---8---8---8-|-8---8---8---8---|
E |-----------------|-----------------|-6---6---6---6---|-----------------|

Guitar 2

This is the basic melody, some extra strums are thrown in during the verse,
e |-----------------|-----------------|-----------------|-----------------|
B |-6---------------|-5---------3-5-6-|---3-------------|-----------------|
G |-----------------|-----------------|-------------3-5-|---2-------------|
D |-----------------|-----------------|-----------------|-----------------|
A |-----------------|-----------------|-----------------|-----------------|
E |-----------------|-----------------|-----------------|-----------------|

- In the acoustic version, the F is instead played one octave down:
x |----------------------------|
A |-----3-----3-----3-----3----|
E |--1-----1-----1-----1-------|


[Verse]

Dm                   Dsus2/C#
    Crazy people know
                       Bb
The special place to go
                     F
When the pressure is on.
Dm             Dsus2/C#
Neurons re-align
                         Bb
'Til the feeling is fine
                   F
Or the trouble is gone.
Dm                     Dsus2/C#
They're in the business
                    Bb  Bb
Of inventing saviours.

[Chorus]

C                  F
  There's always trouble
C                F
  So tell yourself again
        Gm             C
That help is on the way

    F *   Fmaj7   F *  Bb *  Bb#11   Bb * 
And safety          abounds,
    F *   Fmaj7   F *  Bb *  Bb#11   Bb * 
And safety          abounds.


[Verse]

Dm                 Dsus2/C#
      When you need some
                  Bb
Kind of guarantee
                F
That you're protected
Dm
You start to trust
     Dsus2/C#
The things that
                  Bb
Deeper comfort brings
                   F
Before you've checked it.
Dm                 Dsus2/C#
  You might be waiting
        Bb      Bb
For a long time.


[Chorus]

C                  F
  There's always trouble
C                F
  So tell yourself again
        Gm             C
That help is on the way

[Outro]

    F *   Fmaj7   F *  Bb *  Bb#11   Bb * 
And safety         abounds,
     F *   Fmaj7   F *  Bb *  Bb#11   Bb * 
That safety         abounds,
     F *   Fmaj7   F *  Bb *  Bb#11   Bb * 
That safety         abounds,
     F *   Fmaj7   F *  Bb *  Bb#11   Bb * 
That safety         abounds.

Dm Dsus2/C#


Vincent Molin, 2017

            
            
Suggest correction
Creating personal tab
Creating personal tab
You can edit any tab online and save it as your Personal.

You can edit, replace or remove any tab part or add personal notes – all changes will be seen only by you.

Personal tabs can be accessed anytime from any device, even offline.
Learn more »
Give kudos to tab author, rate the tab!
1 2 3 4 5
comments
print report bad tab
guest
You may want to rate the tab now too:
select rating
Wanna post a correction for this tab? Suggest correction