Oops, an error
Loading. Please wait.

When They Really Get To Know You They Will Run tab

version 1
version 1

Whole song

Interactive

16,486 views 15 this week
2 commentsread comments
1 2 3 4 5
x 5
add to favorites
×
Save as Personal and add changes to this tab that will be seen only by you. Learn more ›
×
You can save this tab as Personal to edit and correct it or add notes. All changes will be seen only by you. Learn more »
launch autoscroll
font size
0
reset
how to read this tab
guitar tuner
edit
Autoscroll
slow
fast
+/-
esc
set tempo
stop
Difficulty
intermediate
When They Really Get to Know You They Will Run
by Pedro the Lion
Tabbed by Matt Wondra

I referenced the album version (from "It's Hard to Find a Friend") and a live solo
performance by David Bazan at the Grey Eagle, 11/4/07 (dowload at
http://www.verticalsoul.com/archives/208).

I didn't include any rhythm notation because it depends - when David plays it solo he
mutes the verses and plays the chords more rhythmically, to fill the song out.

Anyone familiar with Dave Matthews Band guitar parts will recognize similar chord from
tunes (Grey Street, Tripping Billies, etc). To play the chords here in the INTRO, VERSE,
CHORUS 2, I keep my middle finger on the low E string and use my ring finger and first 
on the G string.

Enjoy!

====INTRO====

    3x
e|--------------------------------------------|
B|--------------------------------------------|
G|---7-----14--16--14------9--11----9--11-----|
D|---0------0---0---0------0---0----0---0-----|
A|---x------x---x---x------x---x----x---x-----|
E|---7-----14--15--14-----10--10---10--10-----|

e|----------------------|
B|----------------------|
G|----------------------|
D|--12-12-12-12-12-11---|
A|---9-10-10-10-12-12---|
E|----------------------|


====VERSE====

    2x
e|------------------------------------------------------------|
B|------------------------------------------------------------|
G|--11-------------------7---8----2----4---------0------------|
D|---0-------------------0---0----0----0---------2------------|
A|---x-------------------x---x----x----x---------2------------|
E|--10-------------------8---8----2----3---------0------------|
   What makes you think it won't grow back in a day or two...


(on verse 2, play an A chord for the extra bars, on the word "head")

====CHORUS 1====

      G                    A              F#m                                  Bm    D
e|-----------------------------------------------------------------------------2-----2----------|
B|----3--------------------2---------------2-----------------------------------3-----3----------|
G|----0--------------------2---------------2-----------------------------------4-----2----------|
D|----0--------------------2---------------4-----------------------------------4-----0----------|
A|----x--------------------0---------------4-----------------------------------2----------------|
E|----3------------------------------------2----------------------------------------------------|
   I don't like girls the way they are so shave their legs and make them look like movie stars

    Em                       G
e|------------------------------------|
B|--0------------------------3--------|
G|--0------------------------0--------|
D|--2------------------------0--------|
A|--2------------------------x--------|
E|--0------------------------3--------|
   Then we can pretend it's natural

====CHORUS 2====

    3x
e|----------------------------------------|
B|----------------------------------------|
G|---7---------2-----4-----11-------------|
D|---0---------0-----0------0-------------|
A|---x---------x-----x------x-------------|
E|---7---------2-----3-----10-------------|
    Put on whatever makes you attractive...

e|----------------------|
B|----------------------|
G|----------------------|
D|--12-12-12-12-12-11---|
A|---9-10-10-10-12-12---|
E|----------------------|

(SECOND TIME)
        F#m         Bm
e|---------------------------------------------------|
B|-------2----------7--------------------------------|
G|-------2----------7--------------------------------|
D|-------4----------9------------12-12-12-12-12-11---|
A|-------4----------9-------------9-10-10-10-12-12---|
E|-------2----------7--------------------------------|
   Yeah that's who you've got to be

Song order:
INTRO
VERSE
CHORUS 1
CHORUS 2
INTRO
VERSE
CHORUS 2 (w/ SECOND TIME)
VERSE (1x only)
CHORUS 1
INTRO

  ENDING
e|---------------------------------------|
B|---------------------------------------|
G|---7-----14--16--14--------------------|
D|---0------0---0---0--------------------|
A|---x------x---x---x-----7--9---7--9\---|
E|---7-----14--15--14-----5--7---5--7\---|

            
            
Suggest correction
Creating personal tab
Creating personal tab
You can edit any tab online and save it as your Personal.

You can edit, replace or remove any tab part or add personal notes – all changes will be seen only by you.

Personal tabs can be accessed anytime from any device, even offline.
Learn more »
comments
print report bad tab
2 comments total.
+3 reply
xcowrnx 590 Jun 05, 2009 07:45 PM

Excellent. A couple frets for the verse are off by one. Should be:

e|------------------------------------------------------------|
B|------------------------------------------------------------|
G|--11-------------------6---7----2----4---------0------------|
D|---0-------------------0---0----0----0---------2------------|
A|---x-------------------x---x----x----x---------2------------|
E|--10-------------------7---7----2----3---------0------------|

0 reply
psnotsure 2,127 Dec 14, 2013 10:25 AM

Sounds great! i always play this song acoustically so i just kinda revised the intro to make it easier to play if youre not on electric

e|--------------------------------------------|
B|--------10--12---10-------------------------|
G|---7---------------------9--11----9--11-----|
D|---0----x---xx---x-------0---0----0---0-----|
A|---x----9---10---9-------x---x----x---x-----|
E|---7--------------------10--10---10--10-----|

e|----------------------|
B|----------------------|
G|----------------------|
D|--12-12-12-12-12-11---|
A|---9-10-10-10-12-12---|
E|----------------------|

guest
Wanna post a correction for this tab? Suggest correction