Oops, an error
Loading. Please wait.

Mundo Para Dos tab

26 views 1 this week
no commentswrite comment
1 2 3 4 5
3 more votes to show rating
add to favorites
×
Save as Personal and add changes to this tab that will be seen only by you. Learn more ›
×
You can save this tab as Personal to edit and correct it or add notes. All changes will be seen only by you. Learn more »
launch autoscroll
font size
0
reset
how to read this tab
guitar tuner
edit
Autoscroll
slow
fast
+/-
esc
set tempo
stop
Cuando aparece un acorde tenés que tocar esto:
  [Dm]      [F]     [Bb]      [C]
 EADGBE   EADGBE   EADGBE   EADGBE
 xxx765   xxx565   xxx566   xxx788

Del solo no estoy muy seguro porque lo saqué con la criolla.


|----0-----------0---------------|----5-----------5---------------|
|--------3-----------3-----------|--------6-----------6-------6---|
|------------------------2s5-----|------------------------5-------|
|0-----------0-------------------|------------0-------------------|
|--------------------------------|--------------------------------|
|--------------------------------|--------------------------------|

|--------------------------------|--------1-------0---1-------1---|
|--------6-------5---6-------6---|------------1-----------1-------|
|------------5-----------5-------|--------------------------------|
|--------------------------------|--------------------------------|
|--------------------------------|3---x---------------------------|
|6---6---------------------------|--------------------------------|

|----------------0---------------|----------------5h6p5-----------|
|--------3-----------3-------3s6-|----6-------6---------------6---|
|------------2-----------2-------|--------5-----------------------|
|0-------------------------------|------------------------0-------|
|--------------------------------|--------------------------------|
|--------------------------------|--------------------------------|

|--------------------------------|--------1-------0---1-----------|
|----6-----------5---6-------6---|------------------------1---0---|
|--------5---------------5-------|--------------------------------|
|--------------------------------|--------------------------------|
|--------------------------------|3---x---------------------------|
|6-----------6-------------------|--------------------------------|

 [Acá entran el bajo y la batería]
|----0-----------0---------------|----5-----------5---------------|
|--------3-----------3-----------|--------6-----------6-------6---|
|------------------------2---2s5-|------------5-----------5-------|
|0-----------0-------------------|--------------------------------|
|--------------------------------|--------------------------------|
|--------------------------------|--------------------------------|

|--------------------------------|--------1-------0---1-------1---|
|--6---------5---6-------6-------|------------------------1-------|
|--------------------5-----------|--------------------------------|
|--------------------------------|--------------------------------|
|--------------------------------|3---3---------------------------|
|6-------------------------------|--------------------------------|

|----------------0---------------|----5-----------5---------------|
|--------3-----------3-------3s6-|--------6-----------6-------6---|
|2---2-------2-----------2-------|------------5-----------5-------|
|0---0---------------------------|--------------------------------|
|--------------------------------|--------------------------------|
|--------------------------------|--------------------------------|

|--------------------------------|--------------------------------|
|----6-----------6-----------6---|----6-------5---6---------------|
|--------5-----------5---5-------|5-------------------5---4-------|
|--------------------------------|--------------------------------|
|--------------------------------|--------------------------------|
|--------------------------------|--------------------------------|


|----0-----------0---------------|----5-----------5---------------|
|--------3-----------3-----------|--------6-----------6-------6---|
|------------------------2---2s5-|------------5-----------5-------|
|0-----------0-------------------|--------------------------------|
|--------------------------------|--------------------------------|
|--------------------------------|--------------------------------|
  No    hace    falta     decirte               Me gustas   mucho

|--------------------------------|--------------------------------|
|--------6-------5---6-------6---|----6-------5---6-------6-------|
|----5-------------------5-------|5-------------------5-----------|
|--------------------------------|--------------------------------|
|--------------------------------|--------------------------------|
|--------------------------------|--------------------------------|

|------------0-------------------|----5-----------5---------------|
|--------3-------3---------------|--------6-----------6-------5---|
|----2---------------2---2s5-----|------------5-----------5-------|
|0-------------------------------|--------------------------------|
|--------------------------------|--------------------------------|
|--------------------------------|--------------------------------|
   Creo    que   me    delaté

|--------------------------------|--------------------------------|
|6-----------6-----------6-------|----6-------5---6-------6-------|
|----5-----------5---5-----------|5-------------------5-----------|
|--------------------------------|--------------------------------|
|--------------------------------|--------------------------------|
|--------------------------------|--------------------------------|

|----0-----------0---------------|----5-----------5---------------|
|--------3-----------3-----------|--------6-----------6-------6---|
|------------------------2---2s5-|------------5-----------5-------|
|0-----------0-------------------|--------------------------------|
|--------------------------------|--------------------------------|
|--------------------------------|--------------------------------|
  Acercarme           lentamente                       a tu boca

|--------------------------------|--------------------------------|
|6-----------5---6-------6-------|----6-------5---6-------6-------|
|----5---------------5-----------|5-------------------5-----------|
|--------------------------------|--------------------------------|
|--------------------------------|--------------------------------|
|--------------------------------|--------------------------------|

|------------0-------------------|----5-----------5h6p5-----------|
|----------------3---------------|--------6-------------------6---|
|--------2-----------2---2s5-----|------------5-----------5-------|
|0---0---------------------------|--------------------------------|
|--------------------------------|--------------------------------|
|--------------------------------|--------------------------------|
  Palpar  esos  labios  rojos                          y   combinar...

  Bb                 C         Dm   F
  el nectar  delicioso que brota
        Bb        C                     Dm         F            Bb
  y estallaaaar perdidos en la inmensidaaaaaaaaaaaaaaaaaaaaaaaaaaad


|----0-----------0---------------|
|--------2-----------2-----------|
|--------------------------------|
|2-----------2-------------------|
|--------------------------------|
|--------------------------------|

|----0-----------0---------------|----5-----------5---------------|
|--------3-----------3-----------|--------6-----------6-------6---|
|------------------------2---2s5-|------------5-----------5-------|
|0-----------0-------------------|--------------------------------|
|--------------------------------|--------------------------------|
|--------------------------------|--------------------------------|
  Es    que    no   puedo   dejar    de    pensarte    y    mirarte

|--------------------------------|--------1-------0---1-------1---|
|--------6-------5---6-------6---|------------1-----------1-------|
|------------5-----------5-------|--------------------------------|
|--------------------------------|--------------------------------|
|--------------------------------|3---3---------------------------|
|6---6---------------------------|--------------------------------|

|------------0-------------------|----5-----------5---------------|
|----------------3---------------|--------6-----------6-------6---|
|--------2-----------2---2s5-----|------------5-----------5-------|
|0---0---------------------------|--------------------------------|
|--------------------------------|--------------------------------|
|--------------------------------|--------------------------------|
  Estoy        calculándote

|--------------------------------|--------------------------------|
|--------6-------5---6-------6---|----6-------5---6-------6-------|
|----5-------5-----------5-------|5-------------------5-----------|
|--------------------------------|--------------------------------|
|--------------------------------|--------------------------------|
|--------------------------------|--------------------------------|

|----0-----------0---------------|----5-----------5---------------|
|--------3-----------3-----------|--------6-----------6-------6---|
|------------2-----------2---2s5-|------------5-----------5-------|
|0-------------------------------|--------------------------------|
|--------------------------------|--------------------------------|
|--------------------------------|--------------------------------|
  Esto      empieza,        ay,             a complicarse

|--------------------------------|--------------------------------|
|--------6-------5---6-------6---|----6-------5---6-------6-------|
|----5-------------------5-------|5-------------------5-----------|
|--------------------------------|--------------------------------|
|--------------------------------|--------------------------------|
|--------------------------------|--------------------------------|

|------------0-------------------|----5-----------5---------------|
|----------------3---------------|--------6-----------6-------6---|
|--------2-----------2---2s5-----|------------5-----------5-------|
|0---0---------------------------|--------------------------------|
|--------------------------------|--------------------------------|
|--------------------------------|--------------------------------|
  Esclavo     de      tus    ojos                        y con esta...

  Bb            C                 Dm      F
  bestial primavera entramos en celo
       Bb        C         Dm      F
  fijate amor, solos vos y yoooooooooooo

|6-------6---------------0-----------|
|6-------6-------6-------5-----------|
|5---5---------------5---------------|
|------------------------------------|
|------------------------------------|
|------------------------------------|


   [Solo]
|------------------------5v------|6-----5-----6---8v------6-5-----|
|6---5-------5-------------------|----------------------------8---|
|--------7-------7v--------------|--------------------------------|
|--------------------------------|--------------------------------|
|--------------------------------|--------------------------------|
|--------------------------------|--------------------------------|

|--------------------------------|10b11---10--5---14b15---13------|
|------8----9b10r--8---6-----8---|--------------------------------|
|8-9-10--------------------------|--------------------------------|
|--------------------------------|--------------------------------|
|--------------------------------|--------------------------------|
|--------------------------------|--------------------------------|

|14b15---13--12--13--12--10--12--|----10--9---12----10--9---10====|
|--------------------------------|--------------------------------|
|--------------------------------|--------------------------------|
|--------------------------------|--------------------------------|
|--------------------------------|--------------------------------|
|--------------------------------|--------------------------------|

    ------------------


|--------------------------------|------------5-------------------|
|--------------------------------|--------6-------6-------6-------|
|--------------------------------|----5---------------5-----------|
|--------------------------------|--------------------------------|
|--------------------------------|--------------------------------|
|--------------------------------|--------------------------------|
  Todo     este        tiempo      estuvimos  tan  cerca

|--------------------------------|--------------------------------|
|--------6-------5---6-------6---|----6-------5---6-------6-------|
|----5-------------------5-------|5-------5-----------5-----------|
|--------------------------------|--------------------------------|
|--------------------------------|--------------------------------|
|--------------------------------|--------------------------------|

|------------0-------------------|------------5-------------------|
|----------------3---------------|--------6-----------6-------6---|
|--------2-----------2---2s5-----|----5-------------------5-------|
|0---0---------------------------|--------------------------------|
|--------------------------------|--------------------------------|
|--------------------------------|--------------------------------|
  Y       yo     sin      avanzarte

|--------------------------------|--------------------------------|
|--------6-------5---6-------6---|----6-------5---6-------6-------|
|----5-------5-----------5-------|5-------------------5-----------|
|--------------------------------|--------------------------------|
|--------------------------------|--------------------------------|
|--------------------------------|--------------------------------|

|----0-----------0---------------|----5-----------5---------------|
|--------3-----------3-----------|--------6-----------6-------6---|
|------------2-----------2---2s5-|------------5-----------5-------|
|0-------------------------------|--------------------------------|
|--------------------------------|--------------------------------|
|--------------------------------|--------------------------------|
  Hoy     te      tengo    estás                entre mis brazos

|--------------------------------|--------------------------------|
|--------6-------5---6-------6---|----6-------5---6-------6-------|
|----5-------5-----------5-------|5-------------------5-----------|
|--------------------------------|--------------------------------|
|--------------------------------|--------------------------------|
|--------------------------------|--------------------------------|

|------------0-------------------|----5-----------5---------------|
|----------------3---------------|--------6-----------6-------6---|
|--------2-----------2---2s5-----|------------5-----------5-------|
|0---0---------------------------|--------------------------------|
|--------------------------------|--------------------------------|
|--------------------------------|--------------------------------|
   Estoy       protegiéndote                               Y jamás

|--------------------------------|
|----6-----------6---------------|
|--------5-----------5---5-------|
|--------------------------------|
|--------------------------------|
|--------------------------------|

 C                Dm     F
 Te olvidarás de mí, no
           Bb      C                Dm       F        Bb       C
 Fijate amor,   el mundo es para los dooooooooooooooooos
 Dm          F       Bb        C
 Oooooooooohhh oh oh oh    Oh no no no

 Dm          F       Bb


|--------1-----------------------|--------------------------------|
|------------3-------------------|----------------5---------------|
|----3-----------3s--------------|6-------6-----------6-----------|
|3-------------------------------|------------5-----------5-------|
|--------------------------------|--------------------------------|
|--------------------------------|--------------------------------|

|----0-----------0---------------|----5-----------5h6p5-----------|
|--------3-----------3-------3s6-|--------6-------------------6---|
|------------2-----------2-------|------------5-----------5-------|
|0-------------------------------|--------------------------------|
|--------------------------------|--------------------------------|
|--------------------------------|--------------------------------|

|--------------------------------|--------1-------0---1-----------|
|--------6-------5---6-------6---|------------1-----------1-------|
|------------5-----------5-------|--------------------------------|
|--------------------------------|--------------------------------|
|--------------------------------|3---3---------------------------|
|6---6---------------------------|--------------------------------|

|---10---------------------------|
|--10----------------------------|
|-7------------------------------|
|0-------------------------------|
|--------------------------------|
|--------------------------------|

            
            
Suggest correction
Creating personal tab
Creating personal tab
You can edit any tab online and save it as your Personal.

You can edit, replace or remove any tab part or add personal notes – all changes will be seen only by you.

Personal tabs can be accessed anytime from any device, even offline.
Learn more »
Give kudos to tab author, rate the tab!
1 2 3 4 5
comments
print report bad tab
guest
Wanna post a correction for this tab? Suggest correction