Oops, an error
Loading. Please wait.

Oxala tab

25 views 1 this week
no commentswrite comment
1 2 3 4 5
3 more votes to show rating
add to favorites
×
Save as Personal and add changes to this tab that will be seen only by you. Learn more ›
×
You can save this tab as Personal to edit and correct it or add notes. All changes will be seen only by you. Learn more »
launch autoscroll
font size
0
reset
how to read this tab
guitar tuner
edit
Autoscroll
slow
fast
+/-
esc
set tempo
stop
Bueno esto es más o menos lo que hace Hernán con la guitarra. Fijate que
podés hacer alguna variación.
Cualquier comentario me mandás un correo.

 [Introducción]
|0-------0---0-------0---0-------|--------------------------------|
|0-------0---0-------0---0-------|------------0-------------------|
|0-------------------0---0-------|----------------0---------------|
|2-------------------2-----------|0-------------------0-------0---|
|2-------------------------------|2-----------------------2-------|
|0-------------------------------|3-------3-----------------------|

|--------------------------------|--------------------------------|
|----2-----------------------0---|------------1-------------------|
|--------2-----2---------2-------|--------0-----------------------|
|2-------------------2-----------|----2---------------2-----------|
|0-------------------------------|3-------------------3---3s5-----|
|--------------------------------|--------------------------------|

|--------------------------------|--------------------------------|
|--------------------------------|------------0---------------0---|
|----0-----------0-----------0---|--------3-----------3-----------|
|--------4-----------4-----------|--------2-----------------------|
|5-----------5-----------5-------|--------2-----------------------|
|--------------------------------|0---0---------------------------|

|------------0-------------------|--------------------------------|
|0---------------0-------0-------|----1---------------------------|
|----3---------------3-----------|--------0-------0---------------|
|--------------------------------|--------------------------------|
|--------------------------------|3-------------------3---3s5-----|
|--------------------------------|--------------------------------|

|--------------------------------|--------------------------------|
|--------------------3-----------|------------0---------------0---|
|--------0-------------------0---|--------3---------------3-------|
|----4-----------4---------------|--------2-----------------------|
|5-------------------------------|--------2-----------------------|
|--------------------------------|0---0---------------------------|

|--------------------------------|--------------------------------|
|------------0---------------0---|----1---------------------------|
|--------3-----------3---3-------|--------0-------0---------------|
|--------2-----------------------|--------------------------------|
|--------2-----------------------|3-------------------3---3s5-----|
|0---0---------------------------|--------------------------------|

                                  [Acá entran la batería y el bajo]
|--------------------------------|--------------------------------|
|--------------------------------|--------------------------------|
|----0-----------0-----------0---|--------------------------------|
|--------4-----------4-----------|--------------------------------|
|5-----------5-----------5-------|2-------------------------------|
|--------------------------------|0-------------------------------|

|--------------------------------|--------------------------------|
|----1---------------------------|----3---------------------------|
|--------0-------0---------------|--------0-------0-----------0---|
|--------------------------------|--------------------4-----------|
|3-------------------3---3s5-----|5-----------5-----------5-------|
|--------------------------------|--------------------------------|

|------------0-------------------|--------------------------------|
|------------0---------------0---|----0-------0---0---------------|
|--------3-----------3-----------|--------3-----------0-----------|
|--------2-----------------------|--------------------------------|
|--------2-----------------------|--------------------------------|
|0---0---------------------------|--------------------------------|

|--------------------------------|--------------------------------|
|----1---------------------------|----3-------3h5p3---------------|
|--------0-------0-----------0---|--------0-----------0-----------|
|------------------------2-------|------------------------4-------|
|3-------------------3-----------|5-------------------------------|
|--------------------------------|--------------------------------|


 Aaaaaadornó     el         lugaaar...                            --------|
|0-------0---0-------0---0-------|3-------3---3-------3---3-------|       |
|0-------0---0-------0---0-------|3-------3---3-------3---3-------|       |
|0-------------------0---0-------|0-------------------0---0-------|       |
|2-------------------2-----------|0-------------------0-----------|       |
|2-------------------------------|2-------------------------------|       |
|0-------------------------------|3-------------------------------|       |
                                                                          |
|--------------------------------|                                        |
|----2-----------2---------------|                                        |
|--------2-----------2-------2---|                                        |
|------------------------2-------|                                        |
|0-------------------------------|                                        |
|--------------------------------|                                        |
                                                                          |
                                                                  ---|    |
|--------------------------------|--------------------------------|  |    |
|----1-----------1---------------|----3---------------------------|  |    |
|--------0-----------0-------0---|--------0-------0---------------|  |    |
|------------------------2-------|--------------------4-----------|  |    |
|3-------------------------------|5-------------------------------|  |    |
|--------------------------------|--------------------------------|  |    |
                                                                     |-x3 |
|------------0-------------------|--------------------------------|  |    |
|--------------------0-------0---|----0-----------0---------------|  |    |
|--------3---------------3-------|--------3-----------3-----------|  |    |
|--------2-----------------------|--------------------------------|  |    |
|2-------2-----------------------|--------------------------------|  |    |
|0-------------------------------|--------------------------------|  |    |
                                                                  ---|    |
                                                                          |
|--------------------------------|--------------------------------|       |
|----1---------------------------|----3-------3h5h3---------------|       |
|--------0-------0-----------0---|--------0-----------0-----------|       |
|------------------------2-------|------------------------4-------|    x2-|
|3-------------------3-----------|5-------------------------------|       |
|--------------------------------|--------------------------------|       |
                                                                          |
|--------------------------------|--------------------------------|       |
|--------------------------------|--------------------------------|       |
|--------0---------------0-------|--------0---------------0-------|       |
|--------------------------------|----------------------------2---|       |
|--------------------------------|----------------0---------------|       |
|0---------------2---------------|3-------------------------------|       |
                                                                          |
                                                                  ---|    |
|--------------------------------|--------------------------------|  |    |
|----1-----------1---------------|----3---------------------------|  |    |
|--------0-----------0-------0---|--------0-------0---------------|  |    |
|------------------------2-------|--------------------4-----------|  |    |
|3-------------------------------|5-------------------------------|  |    |
|--------------------------------|--------------------------------|  |    |
                                                                     |-x2 |
|------------0-------------------|--------------------------------|  |    |
|--------------------0-------0---|----0-----------0---------------|  |    |
|--------3---------------3-------|--------3-----------3-----------|  |    |
|--------2-----------------------|--------------------------------|  |    |
|2-------2-----------------------|--------------------------------|  |    |
|0-------------------------------|--------------------------------|  |    |
                                                                  ---|    |
                                                                          |
|--------------------------------|--------------------------------|       |
|----1-----------1---------------|----------------3---------------|       |
|--------0-----------0-----------|--------0-----------0-------0---|       |
|--------------------------------|----4-------4-----------4-------|       |
|3-------------------------------|5-------------------------------|       |
|--------------------------------|--------------------------------|       |
                                                                  --------|

  Final
||---------------------------------|--------------------------------|
||---------------------------------|------------------------2-------|
||*----0-------------------0-------|--------0-------------------2---|
||*--------2-----------4-----------|----5---------------2-----------|
||---------------------------------|----------------0---------------|
||-0---------------2---------------|3-------------------------------|

 [Primera vez]
|--------------------------------|---------------------------------||
|----1-----------1---------------|----3----------------------------||
|--------0-----------0-----------|--------0-----------0-------0---*||
|--------------------------------|----------------4-------4-------*||
|3-----------3-------------------|5--------------------------------||
|--------------------------------|---------------------------------||

 [Segunda vez]
|--------------------------------|---------------------------------||
|------------1-------------------|----3----------------------------||
|--------0---0-------0-----------|--------0-------0-----------0---*||
|----2---------------------------|--------------------4-----------*||
|3-------------------------------|5-----------5-----------5--------||
|--------------------------------|---------------------------------||

 [Tercera vez]
|--------------------------------|--------------------------------|
|----1-----------1---------------|----3-----------3---------------|
|--------0-----------0-----------|--------0-----------0-------0---|
|--------------------------------|------------4-----------4-------|
|3-------------------------------|5-------------------------------|
|--------------------------------|--------------------------------|

|----------------0---------------|--------------------0-----------|
|--------0---------------0-------|--------0---------------0-------|
|3-------------------------------|3---------------------------3---|
|--------------------------------|--------------------------------|
|--------------------------------|--------------------------------|
|--------------------------------|--------------------------------|

|0-------------------------------||
|0-------------------------------||
|3-------------------------------||
|2-------------------------------||
|2-------------------------------||
|0-------------------------------||

LETRA:
Adornó el lugar para que se respire
magia, pura magia, sólo magia
bienvenidos al extraño rito
te descorazonaré mundano de hoy
almas teñidas de negro
esperan señal
para abordar tu intelecto
la diferencia entre el cielo y la tierra
sos vos...

El humo del abundante incienso atomiza
el aire, el hechizo, el encanto
bailarinas blancas en círculos
se mueven
Pescado crudo bien sazonado...

Risas, toscanos, vinagres
y el poseído toma la manija
Bienvenidos al extraño rito

[¡Aguante Peladosky!]

            
            
Suggest correction
Creating personal tab
Creating personal tab
You can edit any tab online and save it as your Personal.

You can edit, replace or remove any tab part or add personal notes – all changes will be seen only by you.

Personal tabs can be accessed anytime from any device, even offline.
Learn more »
Give kudos to tab author, rate the tab!
1 2 3 4 5
comments
print report bad tab
guest
Wanna post a correction for this tab? Suggest correction