Oops, an error
Loading. Please wait.

Watercolour tab

version 2
version 2

Whole song

Interactive

16,165 views 12 this week
1 commentread comment
1 2 3 4 5
x 5
add to favorites
×
Save as Personal and add changes to this tab that will be seen only by you. Learn more ›
×
You can save this tab as Personal to edit and correct it or add notes. All changes will be seen only by you. Learn more »
launch autoscroll
font size
0
reset
how to read this tab
guitar tuner
edit
Autoscroll
slow
fast
+/-
esc
set tempo
stop
Author
Unregistered
0:25 Will you..
e|--------6/8--|     e|-----------|     e|-----------------------------|
B|--6-8-9------|     B|--9--9--8--|     B|--9-9-8-9-9-8-6-6-4-6-4-6-8--|
G|-------------|(x4) G|--10-10-8--|(x8) G|-----------------------------|(x4)
D|-------------|     D|-----------|     D|-----------------------------|
A|-------------|     A|-----------|     A|-----------------------------|
E|-------------|     E|-----------|     E|-----------------------------|

1:08 All I believe...
e|------6-8----11-13-------11-9-8---6---6-8-8-6p4h6--------------|
B|--6-9------6-------11--6--------9---6--------------------------|
G|---------------------------------------------------------------|(x2)
D|---------------------------------------------------------------|
A|---------------------------------------------------------------|
E|---------------------------------------------------------------|

1:30 Take me out of here...
e|---------------------------------------------------------------|
B|--9-9-8-9-9-8-6-6-4-6-4-6-8------------------------------------|
G|---------------------------------------------------------------|(x4)
D|---------------------------------------------------------------|
A|---------------------------------------------------------------|
E|---------------------------------------------------------------|

1:52 Feed the fire...
e|---------------------------------------------------------------|
B|--9-8-9-9-8-9-9-8-9-9-8-9-11--9-8-9-9-8-9-6-4-6-9-8-6-4--------|
G|---------------------------------------------------------------|(x2)
D|---------------------------------------------------------------|
A|---------------------------------------------------------------|
E|---------------------------------------------------------------|

2:15                       2:26 Just stay where you are...
e|-------6--|     e|---4-4---6-6---8-8--3-3---4-4---6-6---8-8-6~~~--|
B|--6-8-9---|     B|--2-2-2/4-4-4/6-6--1-1-1/2-2-2/4-4-4/6-6--4~~~--|
G|----------|(x4) G|------------------------------------------------|
D|----------|     D|------------------------------------------------|
A|----------|     A|------------------------------------------------|
E|----------|     E|------------------------------------------------|

2:48 Hide...
e|---------------------------------------------------------------|
B|--9-9-8-9-9-8-6-6-4-6-4-6-8--9-9-8-9-9-8-666666----------------|
G|---------------------------------------------------------------|
D|---------------------------------------------------------------|
A|---------------------------------------------------------------|
E|---------------------------------------------------------------|

e|---------------------------------------------------------------|  
B|--9-8h9-9--9-8h9-9--11-9h11-11--9-8-9-11-----------------------|  
G|---------------------------------------------------------------|  
D|---------------------------------------------------------------|  
A|---------------------------------------------------------------|  
E|---------------------------------------------------------------|  
                                                                        (x2)
e|--------------------------------------|     e|------------------|  
B|--9-8h9-9--9-8h9-9--6-4h6-6--9-8-6-4--|     B|-6\---------------|  
G|--------------------------------------|     G|------------------|  
D|--------------------------------------|     D|------------------|  
A|--------------------------------------|     A|------------------|  
E|--------------------------------------|     E|------------------|


************************************

| /  Slide up
| x  Dead note
| h  Hammer-on
| p  Pull-off
| ~  Vibrato
| \  Slide down

************************************

            
            
Suggest correction
Creating personal tab
Creating personal tab
You can edit any tab online and save it as your Personal.

You can edit, replace or remove any tab part or add personal notes – all changes will be seen only by you.

Personal tabs can be accessed anytime from any device, even offline.
Learn more »
comments
print report bad tab
1 comment total.
0 reply
vamp4042930 10 Jul 26, 2017 03:26 PM

My favorite song I learing how to play it

guest
Wanna post a correction for this tab? Suggest correction