Oops, an error
Loading. Please wait.
We have an official Witchcraft tab made by UG professional guitarists. Check out the tab »
×
4,007 views 1 this week
3 commentsread comments
1 2 3 4 5
2 more votes to show rating
add to favorites
×
Save as Personal and add changes to this tab that will be seen only by you. Learn more ›
×
You can save this tab as Personal to edit and correct it or add notes. All changes will be seen only by you. Learn more »
launch autoscroll
font size
0
reset
how to read this tab
guitar tuner
edit
Autoscroll
slow
fast
+/-
esc
set tempo
stop
Author
---------------------------------------------------------------------
                        WITCHCRAFT - Pendulum
---------------------------------------------------------------------

SYNTH  e---1--4--11--8---4--3—1---6--4--6--8--1-----11-11-13-----|
       B---------------------------------------------------------|
       G---------------------------------------------------------|
       D---------------------------------------------------------|
       A---------------------------------------------------------|
       E---------------------------------------------------------|


      e---1--4--11--8---4--3—1---6--4--3-----1-----11-11-13--------|
       B------------------------------------4----------------------|
       G-----------------------------------------------------------|
       D-----------------------------------------------------------|
       A-----------------------------------------------------------|
       E-----------------------------------------------------------|

PRE-VERSE
e------------------------------------------------|
B------------------------------------------------|
G--------------------------------------6-5-3--5--|
D----3*--3-5-3--3-3--5-6--3--3-5-3---3---------6-|
A----3--------6---3-------3--------6-------------|
E----1------------1-------1----------------------|


e------------------------------------------------|
B------------------------------------------------|
G-----------------------------------------6-5----|
D----3--3-5-3---3-3--5-6--3--3-5-3---3-3------6--|
A----3--------6---3-------3--------6---3---------|
E----1------------1-------1------------1---------|


e------------------------------------------------|
B------------------------------------------------|
G--------------------------------------6-5-3-5---|
D----3--3-5-3---3-3--5-6--3--3-5-3---3---------6-|
A----3--------6---3-------3--------6-------------|
E----1------------1-------1----------------------|


e-----------------------------------------------|
B-----------------------------------------------|
G-----------------------------------------------|
D----3--3-5-3---3-3--5-6-—33333333-11111111-----|
A----3--------6---3-------33333333-11111111-----|
E----1------------1-------11111111-11111111-----|


* 331 chord may be replaced with
D --3--
A --3--
D –-3--

            
            
Suggest correction
Creating personal tab
Creating personal tab
You can edit any tab online and save it as your Personal.

You can edit, replace or remove any tab part or add personal notes – all changes will be seen only by you.

Personal tabs can be accessed anytime from any device, even offline.
Learn more »
Give kudos to tab author, rate the tab!
1 2 3 4 5
comments
print report bad tab
3 comments total.
0 reply
mojojojo17 50 Aug 20, 2010 04:34 AM

Please not half of the sentences are missed off on this thing :) I'm sure you can fill in the blanks.

0 reply
Joshuar 31 Dec 06, 2010 03:12 PM

Move the lower notes up onto the B and G strings and I find it fairly easy to play.

I play it like this:

E-------11p8-----------------8-----11-11-13
B----9-------11-9-8-11--9-11---------------
G-10---------------------------10----------
D------------------------------------------
A------------------------------------------
E------------------------------------------

E-------11p8-----------------------11-11-13
B----9-------11-9-8-11--9-9--8-------------
G-10---------------------------10----------
D------------------------------------------
A------------------------------------------
E------------------------------------------

Hope this helps not hurting your fingers too much. Well done for beating me to tabbing this!

0 reply
mojojojo17 50 Dec 29, 2010 01:16 AM

Ahhh ;D
that's so much neater !
thanks

guest
You may want to rate the tab now too:
select rating
Wanna post a correction for this tab? Suggest correction