Oops, an error
Loading. Please wait.

Brown Eyed Girl tab

1,862 views 1 this week
7 commentsread comments
1 2 3 4 5
x 3
add to favorites
×
Save as Personal and add changes to this tab that will be seen only by you. Learn more ›
×
You can save this tab as Personal to edit and correct it or add notes. All changes will be seen only by you. Learn more »
launch autoscroll
font size
0
reset
how to read this tab
guitar tuner
edit
Autoscroll
slow
fast
+/-
esc
set tempo
stop
Brown Eyed Girl - Pennywise

This is my first tab so I hope that its ok, email me 
at mechboo2000@hotmail.com


Intro
e|--------------8-10-12-10-8------------------------|
B|-8-10-12-10-8--------------8-10-12-10-8-----------|
G|-----------------------------------------11-12-14-|
D|--------------------------------------------------| Play X2
A|--------------------------------------------------|
E|--------------------------------------------------|

Verse (Play Each Chord X8)
e|---------------|
B|---------------|
G|---------------|
D|----5-----7----|  Play X4
A|-5--3--5--5----|
E|-3-----3-------|

Chorus (The part that goes 5-7-5-4-2 on the D string can be
played as power chords or just the single notes, I prefer 
the power chords because it makes a little fatter sound)
e|---------------------------------------------------------|
B|---------------------------------------------------------|
G|---------------------7--9--7--6--4-----------------------|
D|-55555555--77777777--5--7--5--4--2--4--55555555-77777777-|
A|-33333333--55555555-----------------2--33333333-55555555-|
E|---------------------------------------------------------|

e|---------------------------------------------------------|
B|---------------------------------------------------------|
G|---------------------------------------------------------|
D|-----------77777-----------------------------------------|
A|-55555555--55555-----------------------------------------|
E|-33333333------------------------------------------------|



Verse


Chorus (At the end of the chorus this time play the last 
chord for I think 2 bars then play the verse riff X2 and 
let the last chord ring)


I think there's a bass solo in there it might be guitar but
Im not sure.  So I didn't tab it.


Verse


Chorus (Play it like you did the second time but play the 
verse riff X4)


Outro [Add in the D Power Chord (5th fret A string) only 
after you play the first part X3]
e|--------------------------|
B|--------------------------|
G|-77777--666---------------|   I think they play it around 
D|-55555--444--77777777-----|   X6 but it doesn't really 
A|-------------55555555-----|   matter.
E|--------------------------|




Whole Outline

Intro
Verse
Chorus
Verse
Chorus v.2
Verse
Chorus v.2
Outro

The rhythm is pretty simple to get after you hear the song so just practice it
for a bit and you'll get it.

            
            
Suggest correction
Creating personal tab
Creating personal tab
You can edit any tab online and save it as your Personal.

You can edit, replace or remove any tab part or add personal notes – all changes will be seen only by you.

Personal tabs can be accessed anytime from any device, even offline.
Learn more »
Give kudos to tab author, rate the tab!
1 2 3 4 5
comments
print report bad tab
7 comments total. Showing first comments.
0 reply
DIZZYDUDE 10 Nov 13, 2002 07:00 PM

Dude the intro is prefect but rest is a little off but for this being your first tab its pretty goooooooooooooood

0 reply
marc187 10 Jan 11, 2003 07:00 PM

This song isn't even by Pennywise. It is a song by Van Morrison and was covered by Lagwagon! Before you tab a song you should at least have the right info.

0 reply
j_0_5_h19 0 Mar 29, 2003 07:00 PM

songs awsome, in the intro after the
e|--------------8-10-12-10-8------|
B|-8-10-12-10-8------------8-10-12-10-8-

id add a 7 in after the last 8, it sounds alot more like the song, just my thought, the rest is nice, good job

guest
Wanna post a correction for this tab? Suggest correction