Oops, an error
Loading. Please wait.

What Happened When tab

by Penpal
40 views 1 this week
no commentswrite comment
1 2 3 4 5
2 more votes to show rating
add to favorites
×
Save as Personal and add changes to this tab that will be seen only by you. Learn more ›
×
You can save this tab as Personal to edit and correct it or add notes. All changes will be seen only by you. Learn more »
launch autoscroll
font size
0
reset
how to read this tab
guitar tuner
edit
Autoscroll
slow
fast
+/-
esc
set tempo
stop
If we lay still and let old feelings thaw 
before i lay my head in a new place:
memories of warm days rediscovered then missed. 
Empty pages won't see the light of a resolution. 
Lose track of what happened when.
Ill lay my head in a new place
with the river between me and the city lights.

Em11/G
5 5 5 0 0 0
A5
x x x x 0 0

Gtr I (D A D F# A E) - 'S'
Gtr II (D A D F# A E) - 'B'

  Q=140
 4/4
  Gtr I
                                                      4x
|-0----------(0)-----------0----------(0)-------0-----||
|-0----------(0)-----------0----------(0)-------0----o||
|-0----------(0)-----------0----------(0)-------0-----||
|-5----------(5)-----------5----------(5)------/7-----||
|-5----------(5)-----------5----------(5)------/7----o||
|-5----------(5)-----------5----------(5)------/7-----||
|
| Gtr II
|                                                     4x
|-----------------------------------------------------||
|-7--7----7-------10s=5----7--7----7-------10s==5----o||
|-----------------------------------------------------||
|-7--7----7-------10s=5----7--7----7-------10s==5-----||
|----------------------------------------------------o||
|-----------------------------------------------------||

  Gtr I
                                                              4x
|-0-----------------------------------------------------------||
|---5---0p-----9----0---------9-----------0-------7-----0----o||
|-----7--------0----7----------------7p0----------0-----7-----||
|-------------------------------------------------------------||
|------------------------------------------------------------o||
|----------7s9---9----------------------------5---------7-----||
|
| Gtr II
|                                                             4x
|-0------------7---12--------19p=17------14p=12-----------5---||
|---5---0------7---12--------17-(17)-----12-(12)--------5----o||
|-----7--------7---12--------17-(17)-----12-(12)------7-------||
|-------------------------------------------------------------||
|------------------------------------------------------------o||
|-------------------------------------------------------------||

 7/8
  Gtr I
                                                              8x
|-----------------0-----------------------0-------------------||
|--------------0---------------------0-----------------------o||
|--------0h=7---------------0h=7------------------------------||
|-----0------------------0------------------------------------||
|--5------------------5--------------------------------------o||
|-------------------------------------------------------------||
|
|     Gtr II
|                                                             8x
|--0-----------0------------------0----------0----------------||
|--0-----------0------------------0----------0------------0--o||
|-10-----------7-----10-----8p=7--7----------5----7----5------||
|--7-----------7------------------4----------4----------------||
|--9-----------9------------------5----------5---------------o||
|--0-----------0------------------0----------0----------------||

************************************

| (n)  Ghost note
| /    Slide up
| p    Pull-off
 

************************************

            
            
Suggest correction
Creating personal tab
Creating personal tab
You can edit any tab online and save it as your Personal.

You can edit, replace or remove any tab part or add personal notes – all changes will be seen only by you.

Personal tabs can be accessed anytime from any device, even offline.
Learn more »
Give kudos to tab author, rate the tab!
1 2 3 4 5
comments
print report bad tab
guest
Wanna post a correction for this tab? Suggest correction