Oops, an error
Loading. Please wait.

Tell Me Why tab

by Penpals
20,439 views 66 this week
1 commentread comment
1 2 3 4 5
x 9
add to favorites
×
Save as Personal and add changes to this tab that will be seen only by you. Learn more ›
×
You can save this tab as Personal to edit and correct it or add notes. All changes will be seen only by you. Learn more »
launch autoscroll
font size
0
reset
how to read this tab
guitar tuner
edit
Autoscroll
slow
fast
+/-
esc
set tempo
stop
Author
Here is the official website for the penpals: http://translate.google.com/translate?
hl=en&sl=ja&u=http://ja.wikipedia.org/wiki/PENPALS&sa=X&oi=translate&resnum=
5&ct=result&prev=/search%3Fq%3Dwiki%2Bthe%2Bpenpals%26hl%3Den%26rls%
3DDVXA,DVXA:2005-40,DVXA:en
(its translated, theyre from japan)

----------------------------------------------------------------------------
                             Tell me why - the penpals
----------------------------------------------------------------------------
Tabbed by: sam sopaz
Email: solidsnake0555@hotmail.com

This is my first posted tab, its the opening song for the anime show beserk.
Email me with any corrections, also i didnt tab out the solo.

Tuning: Standard

intro
e|-------------------------------------------|
B|-------------------------------------------|
G|---------------7-------------------7-------|
D|7----2----4----7-x3-7----2----4----7-x4----|
A|7-x4-2-x3-4-x4-5----7-x4-2-x3-4-x4-5-------|
E|5----0----2---------5----0----2------------|

intro lead riff thingy
e|------------------------------------------------------------------------|
B|------------------------------------------------------------------------|
G|------6-------6-------6--------------6-------6-------6-6b-6-------------|
D|777-9---777-9---777-9---9-7-97-777-9---777-9---777-9--------979---------|
A|------------------------------------------------------------------------|
E|------------------------------------------------------------------------|

verse
e|------------------------------------------------------------------------|
B|------------------------------------------------------------------------|
G|-------------------------7---------11----9----7-------------------------|
D|7------4-----7-----4-----7-x8-2----11-x4-9-x4-7-x8--2----xx-2----xx-2---|
A|7-x16--4-x16-7-x16-4-x16-5----2-x8-9-----7----5-----2-x2-xx-2-x2-xx-2-x2|
E|5------2-----5-----2----------0---------------------0----xx-0----xx-0---|

chorus
e|------------|
B|------------|
G|------------|x2
D|7-----4-----|
A|7-x16-4-x16-|
E|5-----2-----|

Then the intro riff one time, followed by a solo, the rest of the song 
is just the last part of the verse then the chorus a few times.


| /  slide up
| \  slide down
| h  hammer-on
| p  pull-off
| ~  vibrato
| +  harmonic
| x  Mute note
============================================================================

            
            
Suggest correction
Creating personal tab
Creating personal tab
You can edit any tab online and save it as your Personal.

You can edit, replace or remove any tab part or add personal notes – all changes will be seen only by you.

Personal tabs can be accessed anytime from any device, even offline.
Learn more »
comments
print report bad tab
1 comment total.
0 reply
2girls1cup 72 Feb 10, 2008 02:05 AM

I like this song :D

guest
You may want to rate the tab now too:
select rating
Wanna post a correction for this tab? Suggest correction