Oops, an error
Loading. Please wait.

Deten El Tiempo tab

82 views 1 this week
no commentswrite comment
1 2 3 4 5
3 more votes to show rating
add to favorites
×
Save as Personal and add changes to this tab that will be seen only by you. Learn more ›
×
You can save this tab as Personal to edit and correct it or add notes. All changes will be seen only by you. Learn more »
launch autoscroll
font size
0
reset
how to read this tab
guitar tuner
edit
Autoscroll
slow
fast
+/-
esc
set tempo
stop
esta es la version del viedo ... por si se confunden


estos son los acordes que se usan en la cancion

  G5 |D5 |C5 |E5 |

E|---|---|---|---|
B|---|---|---|---|
G|---|-7-|-5-|-9-|
D|-5-|-7-|-5-|-9-|
A|-5-|-5-|-3-|-7-|
E|-3-|---|---|---|

INTRO

E|---3---3---3---3-5-3-------------------3-|
B|-----3---3---3-------3-1-0-1-0-1-0-1-3-3-|
G|-----------------------------------------|
D|-----------------------------------------|
A|-----------------------------------------|
E|-----------------------------------------|


G5     D5   C5
No se q paso
    E5        C5
pero ayer era la tarde
        G5       D5
del verano del 96
G5     D5    C5
q nos sucedio
  E5
no te acuerdas
    C5          G5             D5
esas tardes en la calle haciendo nada


C5
G5      D5  E5              C5
crecimoss e hicimos todo lo que
  D5
habia que hacerrr


CORO

G5     D5  C5      G5     D5      C5
dame la luz roja por favor deten el tiempo
E5            C5
no me siento mal
   D5
pero recuerdameeeeeeeeeeeeeeee


E|---3---3---3---3-5-3-------------------3-|
B|-----3---3---3-------3-1-0-1-0-1-0-1-3-3-|
G|-----------------------------------------|
D|-----------------------------------------|
A|-----------------------------------------|
E|-----------------------------------------|

G5     D5    C5
el aire de ayer
E5                C5
las canciones de la playa
      G5          D5
los amores del verano
G5       D5       C5
nada va a  volveeeer
  E5
no te acuerdas
   C5               G5           D5
esas tardes en la playa haciendo nada


C5
G5      D5  E5              C5
crecimoss e hicimos todo lo que
  D5
habia que hacerrr


CORO


G5     D5  C5      G5     D5      C5
dame la luz roja por favor deten el tiempo
E5            C5
no me siento mal
   D5
pero recuerdo
G5      D5  C5      G5     D5       C5
cuando nuestro mundo era la inocecia siempre
E5          C5
y no es distinto
     D5
es lo mismoooo


G5         D5      C5
en fin sigo pensando
G5         D5      C5
q no has cambiado
G5      D5   C5
en fin sigo pensando igual
E5         C5
esO q hay no hay nada mal
D5
kiero algo pero........


CORO

G5     D5  C5      G5     D5      C5
dame la luz roja por favor deten el tiempo
E5            C5
no me siento mal
   D5
pero recuerdo
G5      D5  C5      G5     D5       C5
cuando nuestro mundo era la inocecia siempre
E5          C5
y no es distinto
     D5
es lo mismoooo


G5     D5  C5      G5     D5      C5
dame la luz roja por favor deten el tiempo
E5            C5
no me siento mal
E5            C5
no me siento mal
E5            C5
no me siento mal
    D5
pero recuerdamee


E|---3---3---3---3-5-3---------------------|
B|-----3---3---3-----3---------------------|
G|-----------------------------------------|
D|-----------------------------------------|
A|-----------------------------------------|FIN
E|-----------------------------------------|

            
            
Suggest correction
Creating personal tab
Creating personal tab
You can edit any tab online and save it as your Personal.

You can edit, replace or remove any tab part or add personal notes – all changes will be seen only by you.

Personal tabs can be accessed anytime from any device, even offline.
Learn more »
Give kudos to tab author, rate the tab!
1 2 3 4 5
comments
print report bad tab
guest
Wanna post a correction for this tab? Suggest correction