Oops, an error
Loading. Please wait.

La Tabla bass

41 views 1 this week
no commentswrite comment
1 2 3 4 5
3 more votes to show rating
add to favorites
×
Save as Personal and add changes to this tab that will be seen only by you. Learn more ›
×
You can save this tab as Personal to edit and correct it or add notes. All changes will be seen only by you. Learn more »
launch autoscroll
font size
0
reset
guitar tuner
edit
Autoscroll
slow
fast
+/-
esc
set tempo
stop
Aquí esta la tab pa bajo de una de las mejores canciones de Peor es nada
Empieza depues de la guitarra...

G-----------------------------------------------------------------|
D-----------------------------------------------------------------|
A------------------6--6-6--5--5-5------------------5--5-5--6--6-6-|
E--6--6-6-6-6-6-6------------------3--3-3-3-3-3-3-----------------|x2

Verso: 'Tantas tardes de sana entretención...'

G-----------------------------------------------------------------
D-----------------------------------------------------------------
A------------------6--6-6--5--5-5---------------------------------
E--6--6-6-6-6-6-6------------------3--3-3-3-3-3-3--1--1-1-1-1-1-1-

G--------------------------------------------------|
D--------------------------------------------------|
A--6--6-6-6-6-6-6----------------------------------|
E-------------------1--1-1-1-1-1-1--3--3-3--5--5-5-|

Todo 2 veces y el bridge así:

'Me sentí tan mal al cambiarte...'

G------------------------------------------------------------------
D------------------------------------------------------------------
A-----------------------------------6--6-6-6-6-6-6-6-6-6-6-6-6-6-6-
E--3--3-3-3-3-3-3-3-3-3-3-3-3-3-3----------------------------------

G-----------------------------------------------------------------|
D-----------------------------------------------------------------|
A-----------------------------------------------------------------|
E--6--6-6-6-6-6-6-6-6-6-6-6-6-6-6--1--1-1-1-1-1-1-1-1-1-1-1-1-1-1-|

Cuando dice: 'Quiero volver atras...'

G-----------------------------------------------------------------
D-----------------------------------------------------------------
A--6--6-6-6-6-6-6-6-6-6-6-6-6-6-6--3--3-3-3-3-3-3-3-3-3-3-3-3-3-3-
E-----------------------------------------------------------------

G-------------------------------------------------------------------
D-------------------------------------------------------------------
A--6--6-6-6-6-6-6-6-6-6-6-6-6-6-6-----------------------------------
E------------------------------------3--3-3-3-3-3-3-3-3-3-3-3-3-3-3-

G------------------------------------
D------------------------------------
A--6--6-6-6-6-6-6-6-6-6-6-6-6-6-6--8-
E------------------------------------

Toda la canción va igual
En la parte que dice 'Necesito salir a patinar...' Va igual al verso pero un
poco más rápido.

Letra:

Tantas tardes, de sana entretención yo senti junto a ti,
tantos dias, tu me hiciste feliz, pensando y soñando solo en ti.
Me senti tan mal al cambiarte tantas veces, pero tu sabias que ,no dabas para mas
Me senti tan mal, como te pude dejar, como te pude olvidar?,
quiero volver atras.. queiro volver atras.... quiero volver atras....
Al terminar con esta relación todo lo quisiste olvidar
si tu lo quieres podemos continuar de extender esta agonia sin final
Me senti tan mal, como te pude dejar, como te pude olvidar?,
quiero volver atras.. queiro volver atras.... quiero volver atras....
Necesito!, salir a patinar y asi dejarlo todo atras!
Necesito!, salir a patinar y asi dejarlo todo atras!
Por que te deje!?!!!
Por que te olvide!!?
Ya no volveras!!
Nunca nunca mas!!

Bueno eso es todo


                                   CHAOOOOOOOOOO!!!!!

            
            
Suggest correction
Creating personal tab
Creating personal tab
You can edit any tab online and save it as your Personal.

You can edit, replace or remove any tab part or add personal notes – all changes will be seen only by you.

Personal tabs can be accessed anytime from any device, even offline.
Learn more »
Give kudos to tab author, rate the tab!
1 2 3 4 5
comments
print report bad tab
guest
Wanna post a correction for this tab? Suggest correction