Oops, an error
Loading. Please wait.

No Control bass

version 2
version 2

Whole song

by Pepper
757 views 3 this week
no commentswrite comment
1 2 3 4 5
3 more votes to show rating
add to favorites
×
Save as Personal and add changes to this tab that will be seen only by you. Learn more ›
×
You can save this tab as Personal to edit and correct it or add notes. All changes will be seen only by you. Learn more »
launch autoscroll
font size
0
reset
guitar tuner
edit
Autoscroll
slow
fast
+/-
esc
set tempo
stop
Author
Difficulty
Tabbed by rougebassist
(i'm just putting into an order that helps me read the tab better)

standard tuning

the guitar starts out the begining.

                 Verse (6 times)
G|---------------------------------|
D|---------------------------------|
A|-------2--------------2-----2----|
E|-O-O-3--0-0-3-0--0-0-3--0-0---3--|

       Chorus (1 time)
G|--------------------------------|
D|--------------------------------|
A|--7-7--5-5----------------------|
E|-------------5-5--3-3-3-3-------|

         Fill (1 time)
G|-------------------|
D|---5---------------|
A|-7--7-5-7-5--------|
E|--------------7--5-|

       Chorus (2 times)
G|--------------------------------|
D|--------------------------------|
A|--7-7--5-5----------------------|
E|-------------5-5--3-3-3-3-------|

      Other fill (1 time)
G|--------------|
D|--5--5--4--4--|
A|--------------|
E|---3--3--2--2-|

                 Verse (6 times)
G|---------------------------------|
D|---------------------------------|
A|-------2--------------2-----2----|
E|-O-O-3--0-0-3-0--0-0-3--0-0---3--|

       Chorus (1 time)
G|--------------------------------|
D|--------------------------------|
A|--7-7--5-5----------------------|
E|-------------5-5--3-3-3-3-------|

         Fill (1 time)
G|-------------------|
D|---5---------------|
A|-7--7-5-7-5--------|
E|--------------7--5-|

       Chorus (2 times)
G|--------------------------------|
D|--------------------------------|
A|--7-7--5-5----------------------|
E|-------------5-5--3-3-3-3-------|

      Bridge (4 times)
G|-------------------|
D|-2--5--0h2-5-0h2---|
A|-----------------2-|
E|-------------------|

      Other fill (1 time)
G|--------------|
D|--5--5--4--4--|
A|--------------|
E|---3--3--2--2-|

      Bridge (4 times)
G|-------------------|
D|-2--5--0h2-5-0h2---|
A|-----------------2-|
E|-------------------|

      Other fill (1 time)
G|--------------|
D|--5--5--4--4--|
A|--------------|
E|---3--3--2--2-|

       Chorus (1 time)
G|--------------------------------|
D|--------------------------------|
A|--7-7--5-5----------------------|
E|-------------5-5--3-3-3-3-------|

         Fill (1 time)
G|-------------------|
D|---5---------------|
A|-7--7-5-7-5--------|
E|--------------7--5-|

       Chorus (till the end)
G|--------------------------------|
D|--------------------------------|
A|--7-7--5-5----------------------|
E|-------------5-5--3-3-3-3-------|

            
            
Suggest correction
Creating personal tab
Creating personal tab
You can edit any tab online and save it as your Personal.

You can edit, replace or remove any tab part or add personal notes – all changes will be seen only by you.

Personal tabs can be accessed anytime from any device, even offline.
Learn more »
Give kudos to tab author, rate the tab!
1 2 3 4 5
comments
print report bad tab
guest
You may want to rate the tab now too:
select rating
Wanna post a correction for this tab? Suggest correction