Oops, an error
Loading. Please wait.

Autumn tab

version 1
version 1

Whole song

Interactive

11,177 views 18 this week
no commentswrite comment
1 2 3 4 5
x 3
add to favorites
×
Save as Personal and add changes to this tab that will be seen only by you. Learn more ›
×
You can save this tab as Personal to edit and correct it or add notes. All changes will be seen only by you. Learn more »
launch autoscroll
font size
0
reset
how to read this tab
guitar tuner
edit
Autoscroll
slow
fast
+/-
esc
set tempo
stop
Author
Tabbed By: Jimmy10

http://www.youtube.com/watch?v=6vIGxW6M4Gs

Peo Kindgren - Autumn from "The Four Seasons"

       
E||--7--------7--5--------5--|
B||--------0-----------3-----|
G||-----7-----------0--------|
D||--5-----------4-----------|
A||--------------------------|
E||--------------------------|

  
--3--------3--2--------2--|--0--------0--------------|
--------0-----------0-----|--------1-----3--------3--|
-----0-----------0--------|-----0--------------0-----|
--2-----------0-----------|-----------------0--------|
--------------------------|--3-----------2-----------|
--------------------------|--------------------------|

 
------------------------|--7--------7--5--------5--|
--1--0------------------|--------0-----------3-----|
--------2--0--2---------|-----7-----------0--------|
-------------------0----|--5-----------4-----------|
--0---------------------|--------------------------|
--------------2---------|--------------------------|

--3--------3--2--------2--|--0--------0--2--------2--|
--------0-----------0-----|--------1-----------1-----|
-----0-----------0--------|-----0-----------2--------|
--2-----------0-----------|--------------0-----------|
--------------------------|--3-----------------------|
--------------------------|--------------------------|
    
--3--------------------|--7--------7--5--------5--|
-----------1--0--------|--------0-----------3-----|
-----0--2-----0--------|-----7-----------0--------|
-----------------------|--5-----------4-----------|
-----------------------|--------------------------|
--3-----------3--------|--------------------------|
  
--3--------3--2--------2--|--0--------0--------------|
--------0-----------0-----|--------1-----3--------3--|
-----0-----------0--------|-----0--------------0-----|
--2-----------0-----------|-----------------0--------|
--------------------------|--3-----------2-----------|
--------------------------|--------------------------|


     |-3-|                                             
   
---------------------------|--7--------7--5--------5--|
--1--0-1-0-----------------|--------0-----------3-----|
-----------2--0--2---------|-----7-----------0--------|
----------------------0----|--5-----------4-----------|
--0------------------------|--------------------------|
-----------------2---------|--------------------------|

  
--3--------3--2--------2--|--0--------0--2--------2--|
--------0-----------0-----|--------1-----------1-----|
-----0-----------0--------|-----0-----------2--------|
--2-----------0-----------|--------------0-----------|
--------------------------|--3-----------------------|
--------------------------|--------------------------|
  
--3--------------------|---------------------------|
-----------1--0--------|---------------3--------3--|
-----0--2-----0--------|---------------------------|
-----------------------|--2-----2------4-----4-----|
-----------------------|-----3-----3/-----5--------|
--3-----------3--------|---------------------------|


--------------------------|---------------------------|
-----------0--------------|---------------------------|
--2-----2-----0--------0--|------------------------0--|
-----0--------------2-----|--2-----2------4-----4-----|
-----------------2--------|-----3-----3/-----5--------|
--3-----------0-----------|---------------------------|


  
--------------3---------|---------------------------|
------------------------|---------------3--------3--|
-----------0-------0----|---------------------------|
--------0---------------|--2-----2------4-----4-----|
-----2------------------|-----3-----3/-----5--------|
--3---------------------|---------------------------|


  
--------------------------|---------------------------|
-----------0--------------|---------------------------|
--2-----2-----0--------0--|------------------------0--|
-----0--------------2-----|--2-----2------4-----4-----|
-----------------2--------|-----3-----3/-----5--------|
--3-----------0-----------|---------------------------|

  
--------------3--------|--7--------7--5--------5--|
-----------------------|--------0-----------3-----|
-----------0-----------|-----7-----------0--------|
--------0--------------|--5-----------4-----------|
-----2-----------------|--------------------------|
--3--------------------|--------------------------|


--3--------3--2--------2--|--0--------0--------------|
--------0-----------0-----|--------1-----3--------3--|
-----0-----------0--------|-----0--------------0-----|
--2-----------0-----------|-----------------0--------|
--------------------------|--3-----------2-----------|
--------------------------|--------------------------|


     |-3-|                                             
 
---------------------------|--7--------7--5--------5--|
--1--0-1-0-----------------|--------0-----------3-----|
-----------2--0--2---------|-----7-----------0--------|
----------------------0----|--5-----------4-----------|
--0------------------------|--------------------------|
-----------------2---------|--------------------------|

 
--3--------3--2--3-2-0-----|--0--------0--2--------2--|
--------0---------------3--|--------3-----------1-----|
-----0---------------------|-----0-----------2--------|
--2-----------0------------|--------------0-----------|
---------------------------|--3-----------------------|
---------------------------|--------------------------|


--3--------------------|--8---------8---7--------7--|
-----------1--0--------|--------10------------8-----|
-----0--2-----0--------|-----9-------------7--------|
-----------------------|--7-------------------------|
-----------------------|---------------10-----------|
--3-----------3--------|----------------------------|

 
----------------------------|--------------0----------|
--10--------10--8--------8--|--7--------7-------1-----|
---------7------------9-----|--------7-------------0--|
------7------------9--------|-----7-------------------|
---9------------7-----------|--------------3----------|
----------------------------|--7----------------------|
    
--0--0--------0--0--------|--0--2--------2--------|
--------1-----------1-----|-----------1-----------|
-----------0-----------0--|--------2--------------|
--------------------------|-----0-----------------|
-----2-----------0--------|-----------------------|
--------------------------|-----------------------|


--7--------7--5--------5--|--3--------3--2--3-2-0-----|
--------0-----------3-----|--------0---------------3--|
-----7-----------0--------|-----0---------------------|
--5-----------4-----------|--2-----------0------------|
--------------------------|---------------------------|
--------------------------|---------------------------|
             
--0--------0--2--------3--|--L--------------------|
--------3-----------1-----|-----------1--0--------|
-----0-----------2--------|-----0--2-----0--------|
--------------0-----------|-----------------------|
--3-----------------------|-----------------------|
--------------------------|--3-----------3--------|
  
--2--------2--3--------3--|--0--------0--2--------2--|
--------3-----------0-----|--2-----2-----3-----3-----|
-----2-----------0--------|-----0-----------2--------|
--------------------------|--------------0-----------|
--2-----------------------|--0-----------------------|
--------------0-----------|--------------------------|

   
--------------0--------0--|------------------------|
--3--------3--------1-----|--1--------0------------|
--------0--------0--------|--------2-----2---------|
-----4--------------------|-----2-------------0----|
--2-----------3-----------|--0---------------------|
--------------------------|--------------2---------|


--2--------2--3--------3--|--0--------0--2--------2--|
--------3-----------0-----|--------2-----------3-----|
-----2-----------0--------|-----0-----------2--------|
--------------------------|--------------0-----------|
--2-----------------------|--0-----------------------|
--------------0-----------|--------------------------|


    
--------------0--------0--|
--3--------3--------1-----|
--------0--------0--------|
-----4--------------------|
--2-----------3-----------|
--------------------------|


--2--------2--3--------------|
--------1--------------------|
-----2-----------(0)--(0)----|
--0--------------------------|
-----------------------------|
--------------3--------------|

 
--7--------7--5--------5--|--3--------3--2--------2--|
--------0-----------3-----|--------0-----------0-----|
-----7-----------0--------|-----0-----------0--------|
--5-----------4-----------|--2-----------0-----------|
--------------------------|--------------------------|
--------------------------|--------------------------|


                                |-3-|                  
      
--0--------0--------------|---------------------------|
--------1-----3--------3--|--1--0-1-0-----------------|
-----0--------------0-----|-----------2--0--2---------|
-----------------0--------|----------------------0----|
--3-----------2-----------|--0------------------------|
--------------------------|-----------------2---------|


  
--7--------7--5--------5--|--3--------3--2--3-2-0-----|
--------0-----------3-----|--------0---------------3--|
-----7-----------0--------|-----0---------------------|
--5-----------4-----------|--2-----------0------------|
--------------------------|---------------------------|
--------------------------|---------------------------|

       
--0--------0--2--------2--|--3-----------3--------|
--------3-----------1-----|-----------1--0--------|
-----0-----------2--------|-----0--2-----0--------|
--------------0-----------|--------------0--------|
--3-----------------------|-----------------------|
--------------------------|--3-----------3--------|







 
 

            
            
Suggest correction
Creating personal tab
Creating personal tab
You can edit any tab online and save it as your Personal.

You can edit, replace or remove any tab part or add personal notes – all changes will be seen only by you.

Personal tabs can be accessed anytime from any device, even offline.
Learn more »
Give kudos to tab author, rate the tab!
1 2 3 4 5
comments
print report bad tab
guest
You may want to rate the tab now too:
select rating
Wanna post a correction for this tab? Suggest correction