Oops, an error
Loading. Please wait.

Abducido Por Extraterrestres tab

16 views 1 this week
no commentswrite comment
1 2 3 4 5
3 more votes to show rating
add to favorites
×
Save as Personal and add changes to this tab that will be seen only by you. Learn more ›
×
You can save this tab as Personal to edit and correct it or add notes. All changes will be seen only by you. Learn more »
launch autoscroll
font size
0
reset
how to read this tab
guitar tuner
edit
Autoscroll
slow
fast
+/-
esc
set tempo
stop
B        G                    D
Abducido por extraterrestres
A
soy el elegido                    x4


 -----------------I----------------------I
 ----7---7---7----I----7-----------------I
 --7---7---7---7--I--7---7-9-7-6-7-------I          x2
 -----------------I----------------------I
 -----------------I----------------------I
 -----------------I----------------------I
/


B               G
era una noche comun
D           A
me iba a dormir
   B               G             D     A
despues de todo un dia sin hacer nada (No hacer nada)
B          G
los ojos cerre
D              A
todo oscuro quedo
B            G            D     A
entonces derepente vi una luz


 -------------------I----------------------I
 -7---7---7---7-----I--7---7---------------I
 ---7---7---7---7---I----7---7-9-7-6-7-----I
 -------------------I----------------------I
 -------------------I----------------------I
 -------------------I----------------------I
/


B                 G
a la puerta me asome
D                  A
vi un platillo volador
      B          G           D   A
que encima de mi casa estaciono (Estaciono)
B                G
tenia luces de neon
      D               A
y pegotines de winnie pooh
B                   G          D    A
despues de un largo rato aterrizo


B        G                    D
abducido por extraterrestres
A
soy el elegido                    x4


 -----------------I----------------------I
 ----7---7---7----I----7-----------------I
 --7---7---7---7--I--7---7-9-7-6-7-------I
 -----------------I----------------------I
 -----------------I----------------------I
 -----------------I----------------------I
/


B                  G
Cuatro seres verde moho
D              A
vinieron hasta mi
  B          G            D          A
y me gritaon HEY! quedate quieto (Quedate quieto)
B            G
no me pude mover
D             A
comence a levitar
B           G          D    A
y a su nave yo fui a parar


 -------------------I----------------------I
 -7---7---7---7-----I--7---7---------------I
 ---7---7---7---7---I----7---7-9-7-6-7-----I
 -------------------I----------------------I
 -------------------I----------------------I
 -------------------I----------------------I
/


B              G
de todo me olvide
D               A
no entiendo por que
   B          G            D        A
tengo una cicatriz en mi cabeza (En mi cabeza)
B            G
debajo de la piel
      D         A
tengo plomo y metal
  B            G           D    A
y dicen que me van a contactar


B        G                    D
abducido por extraterrestres
A
soy el elegido                    x4


Solo B G D A


B        G                    D
abducido por extraterrestres
A
soy el elegido                    x4

B

            
            
Suggest correction
Creating personal tab
Creating personal tab
You can edit any tab online and save it as your Personal.

You can edit, replace or remove any tab part or add personal notes – all changes will be seen only by you.

Personal tabs can be accessed anytime from any device, even offline.
Learn more »
Give kudos to tab author, rate the tab!
1 2 3 4 5
comments
print report bad tab
guest
Wanna post a correction for this tab? Suggest correction