Oops, an error
Loading. Please wait.

Pirata tab

by Pereza
139 views 1 this week
no commentswrite comment
1 2 3 4 5
3 more votes to show rating
add to favorites
×
Save as Personal and add changes to this tab that will be seen only by you. Learn more ›
×
You can save this tab as Personal to edit and correct it or add notes. All changes will be seen only by you. Learn more »
launch autoscroll
font size
0
reset
how to read this tab
guitar tuner
edit
Autoscroll
slow
fast
+/-
esc
set tempo
stop
Intro:
(Si la haces con el tubito del slide queda mejor)

     G                         Am
E----------------------------------------
B--8>>>12---10>>12--10--8--10--8--------
G---------------------------------------
     G                         Am
E-------------------------------------------
B--8>>>12---10>>12--10--8--10--8--8>>12>>15-
G-------------------------------------------

   G              Am
Soy a quien tu necesitas.
   G              Am
Soy la razón de tu vida.

  B                   C
Pero cuando zarpa el barco
  B                  C
se me pone el alma pirata
  C               Bm
me crecen cuernos y rabo
  C                        D
en vez de un par de alas blancas,
  C                  Bm
y no puede entenderlo nadie
  C                    D
se me queda pequeño el cielo
  C               Bm
no conozco ni a mi padre
  C                       G
y son mentira todos tus tuestos...


     G                         Am
E----------------------------------------
B--8>>>12---10>>12--10--8--10--8--------
G---------------------------------------
     G                         Am
E-------------------------------------------
B--8>>>12---10>>12--10--8--10--8--8>>12>>15-
G-------------------------------------------

  G              Am
Soy un tipo responsable
  G                  Am
y voy, bajando por la calle.

  B                 C
Pero cuando zarpa el barco
  B                  C
se me pone el alma pirata
  C               Bm
me crecen cuernos y rabo
  C                        D
en vez de un par de alas blancas,
  C                  Bm
y no puede entenderlo nadie
  C                  D
se me queda pequeño el cielo
  C                Bm
no conozco ni a mi padre
  C                 G
y son mentira todos tus versos...

E----------------------------------------------------------
B--3>>7--5-3-5-3-0-1-0----3>>7--5-3-5-3-0-1-0--------------
G----------------------------------------------------------


E----------------------------------------------------------
B--10--10>8-----8----------------8-------------------------
G-----------10-----10---6>8--10----------------------------

  B                  C
Pero cuando zarpa el barco
  B                 C
se me pone el alma pirata
  C               Bm
me crecen cuernos y rabo
  C                       D
en vez de un par de alas blancas,
  C                 Bm
y no puede entenderlo nadie
  C                  D
se me queda pequeño el cielo
  C                  Bm
no conozco ni a mi padre
  C                  G
y son mentira todos tus besos...

  C                    Bm
Y se me queda pequeño el cielo
  C                     D
echo por tierra mis amistades
  C                    Bm
me bebo de un trago el miedo
  C                    D
y estropeo todos mis planes
  Bm               C                 G
y a empezar...y a empezar otra vez de cero.


E----------------------------------------
B--8>>>12---10>>12--10--8--10--8--------
G---------------------------------------

E-------------------------------------------
B--8>>>12---10>>12--10--8--10--8--8>>12>>15-
G-------------------------------------------


Si os ha gustado,agregadme a tuenti: Pepe Venegas.

Se la dedico a Jack Sparrow.

            
            
Suggest correction
Creating personal tab
Creating personal tab
You can edit any tab online and save it as your Personal.

You can edit, replace or remove any tab part or add personal notes – all changes will be seen only by you.

Personal tabs can be accessed anytime from any device, even offline.
Learn more »
Give kudos to tab author, rate the tab!
1 2 3 4 5
comments
print report bad tab
guest
Wanna post a correction for this tab? Suggest correction