Oops, an error
Loading. Please wait.

Superjunkies tab

by Pereza
3,277 views 3 this week
no commentswrite comment
1 2 3 4 5
3 more votes to show rating
add to favorites
×
Save as Personal and add changes to this tab that will be seen only by you. Learn more ›
×
You can save this tab as Personal to edit and correct it or add notes. All changes will be seen only by you. Learn more »
launch autoscroll
font size
0
reset
how to read this tab
guitar tuner
edit
Autoscroll
slow
fast
+/-
esc
set tempo
stop
Author
-------------------------------------------------------------------------------
                             SUPERJUNKIES - Pereza
-------------------------------------------------------------------------------
Tabbed by: Roman92   http://youtube.com/romahg
Email: romanwebs@hotmail.com

Tuning: Standard

   this is a very cool funky spanish song. i didnt write the exact way
   to play it just AS the original song. i've just written my
   intepretation with the main chords... rythms are your matter, make
   it your style ;)
           
----------

* = best strings to pick
      
-Intro 

(this is the very first note, u dont need to play it...)

E|----------------------------------------|
B|-------11b------ ó --------11b----------|    
G|---------------------------12b----------|    
D|----------------------------------------|    
A|----------------------------------------|    
E|----------------------------------------|
          
Chords in the intro, guess the rythm, it's quite easy

        mute with little finger
            v
E|-4---2---|x|---4---------------------------|
B|-4---2---|x|---6---------------------------|    
G|-5---3----0----6---------------------------|*    |Play twice|
D|-6---4----1----6---------------------------|*    
A|-6---4----1----4---------------------------|*    
E|-4---2----x----x---------------------------|*
   G#  F#   D#   C#

-MAIN VERSE:


E|----------------------------------------|
B|----------------------------------------|    
G|-----5---------3--------6--------8------|    |Play twice|
D|-------6---------4----6---6----8---8----|    
A|---6---------4------4--------6----------|    
E|-4---------2----------------------------|
      G#        F#       C#      D#

-INTERLUDE1:

E|----------------------------------------------|
B|----------------------------------------------|    
G|-8-8-88xx66-x-6-6-/-9--9-x-4-4x6-6-xx-6-4-----|    
D|-8-8-88xx66-x-3-3-/-9--9-x-4-4x6-6-xx-6-4--6--|    
A|-------------------------------------------6--|    
E|----------------------------------------------|

-Same chords as the CHORUS:

play the same rythm like at the beguining but with some muting
(double muting instead of single)
      v     v     v
E|-4--x--2--x--4--x--4---------------------------|
B|-4--x--2--x--8--x--6---------------------------|    
G|-5--x--3--x--8--x--6---------------------------|*    |Play twice|
D|-6--x--4--x--8--x--6---------------------------|*    
A|-6--x--4--x--6--x--4---------------------------|*    
E|-4--x--2--x--x--x--x---------------------------|*

-Then goes the MAIN VERSE again

-before the interlude play this chords the way u like it

E|-4---2---4---x---4---6----------|
B|-4---2---6---6---6---8----------|    
G|-5---3---6---7---6---8---6-4----|*    
D|-6---4---6---8---6---8---6-4-6--|*    
A|-6---4---4---8---4---6-------6--|*    
E|-4---2---x---6---x---x----------|*

-INTERLUDE2: 
   
 play this chords in     then it goes like this:
  a very funky way      play the chord and add that note. u may guess it thru the music
E|-x-----4---------|-----------|
B|-9-----4---------|-8*-10*----|    
G|-10----5---------|-8---------|    
D|-10----6---|x2|--|-8---------|    
A|-8-----6---------|-6*--------|    
E|-x-----4---------|-----------|

-CHORUS:

u can play it the way we did it before:

E|-4--x--2--x--4--x--4---|
B|-4--x--2--x--8--x--6---|    
G|-5--x--3--x--8--x--6---|*    |Play twice|
D|-6--x--4--x--8--x--6---|*    
A|-6--x--4--x--6--x--4---|*   
E|-4--x--2--x--x--x--x---|*

or it can go this way too: (basically it's the same)

E|---xx---x---x------xx------------------------|
B|---xx---x---x------xx-x--x-xx------xx--------|   pay attention to
G|-5-xx-5-x-5-x-3--3-xx-0--0-xx-6--6-xx-6p4----|    rythm chanegs
D|-6-xx-6-x-6-x-4--4-xx-1--1-xx-6--6-xx-6p4----|       in here
A|-6-xx-6-x-6-x-4--4-xx-1--1-xx-4--4-xx-4------|    
E|-4-xx-4-x-4-x-2--2-xx-x--x-xx----------------|

u can also play this funky thing which is heard in the chorus

E|-------------------------------------------|
B|----------------xx-----------------xx------|    
G|------------4b--xx-----------------xx------|    
D|-4-6-4-6-4-6----xx---4-6-4-6-4-6-4-xx------|    
A|----------------xx-----------------xx------|    
E|-------------------------------------------|


-AFTER CHORUS:

E|-----------------------------------------------|
B|---------------------9---9---9---9-------------|    
G|----9---9---9---9---10--10--10--10-------------|    
D|---10--10--10--10---10--10--10--10----x2-------|    
A|---10--10--10--10--8---8---8---8---------------|    
E|-8----8---8---8--------------------------------|

E|-----------------------------------------|
B|---------------------8---8---8---8-------|    
G|----7---7---7---7----8---8---8---8-------|    
D|----8---8---8---8----8---8---8---8----x2-|    
A|----8---8---8---8--6---6---6---6---------|    
E|-6----6---6---6--------------------------|

learn this and the rest will come out for its own ;)

thx for reading 
and not making this yours,
NJOY!

            
            
Suggest correction
Creating personal tab
Creating personal tab
You can edit any tab online and save it as your Personal.

You can edit, replace or remove any tab part or add personal notes – all changes will be seen only by you.

Personal tabs can be accessed anytime from any device, even offline.
Learn more »
Give kudos to tab author, rate the tab!
1 2 3 4 5
comments
print report bad tab
guest
You may want to rate the tab now too:
select rating
Wanna post a correction for this tab? Suggest correction