Oops, an error
Loading. Please wait.

Facepalm Mute bass

version 1
version 1

Whole song

Interactive

331 views 6 this week
2 commentsread comments
1 2 3 4 5
2 more votes to show rating
add to favorites
×
Save as Personal and add changes to this tab that will be seen only by you. Learn more ›
×
You can save this tab as Personal to edit and correct it or add notes. All changes will be seen only by you. Learn more »
launch autoscroll
font size
0
reset
guitar tuner
backing track
0:00
0:00
edit
Autoscroll
slow
fast
+/-
esc
set tempo
stop
Title: Facepalm Mute
Artist: Periphery
Album: Periphery II: This Time It's Personal
Tuning: Drop G# (G# D# G# C# F#)
Tab Author: Pearce Hamblin (The Bass Diaries)

   [5/8 - Intro]
F#|---------------------------|-------------------------------|---------------------------|
C#|---------------------------|-------------------------------|---------------------------|
G#|---------------------------|-------------------------------|---------------------------|
D#|---------------------------|-------------------------------|---------------------------|
G#|-7--4---4-----2--4--7--4---|-7--4-----4-----4--0-----0-----|-7--4---4-----2--4--7--4---|

   [6/8]                                 [5/8]
F#|-------------------------------------|---------------------------|-------------------------------|
C#|-------------------------------------|---------------------------|-------------------------------|
G#|-------------------------------------|---------------------------|-------------------------------|
D#|-------------------5-----5--5--5--5--|---------------------------|-------------------------------|
G#|-7--4-----4-----4--------------------|-7--4---4-----2--4--7--4---|-7--4-----4-----4--0-----0-----|

                               [6/8]                                 [5/8]
F#|---------------------------|-------------------------------------|---------------------------|
C#|---------------------------|-------------------------------------|---------------------------|
G#|---------------------------|-------------------------------------|---------------------------|
D#|---------------------------|-------------------------------------|---------------------------|
G#|-7--4---4-----2--4--7--4---|-7--4-----4-----4--3-----3-----3-----|-7--4---4-----2--4--7--4---|

                                                               [6/8]
F#|-------------------------------|---------------------------|-------------------------------------|
C#|-------------------------------|---------------------------|-------------------------------------|
G#|-------------------------------|---------------------------|-------------------------------------|
D#|-------------------------------|---------------------------|-------------------5-----5-----5--5--|
G#|-7--4-----4-----4--0-----0-----|-7--4---4-----2--4--7--4---|-7--4-----4--------------------------|

   [5/8]
F#|---------------------------|-------------------------------|---------------------------|
C#|---------------------------|-------------------------------|---------------------------|
G#|---------------------------|-------------------------------|---------------------------|
D#|---------------------------|-------------------------------|---------------------------|
G#|-7--4---4-----2--4--7--4---|-7--4-----4-----4--0-----0-----|-7--4---4-----2--4--7--4---|

   [6/8]                                 [5/8 - Verse 1]
F#|-------------------------------------|---------------------|---------------------|
C#|-------------------------------------|---------------------|---------------------|
G#|-------------------------------------|---------------------|---------------------|
D#|-------------------------------------|---------------------|---------------------|
G#|-7--4-----4-----4--3-----3--3--3--3--|-4-------------------|---------------------|

                         [6/8]           [4/8]
F#|---------------------|---------------|-----------------|-----------------|-------|
C#|---------------------|---------------|-----------------|-----------------|-------|
G#|---------------------|---------------|-----------------|-----------------|-------|
D#|---------------------|---------------|-----------------|-----------------|-------|
G#|-------------4-------|---------------|-4---------------|-----------------|-------|

                             [4/4 - Instrumental]
F#|-----------------|-------|-------------------------------------------------|
C#|-----------------|-------|-------------------------------------------------|
G#|-----------------|-------|-------------------------------------------------|
D#|-----------------|-------|-------------------------------------------------|
G#|-4---------------|-------|-3--0--3--4--X--3--0--3--4--X--3--0--3--4--X--4--|


F#|-------------------------------------------------|-------------------------------------------------|
C#|-------------------------------------------------|-------------------------------------------------|
G#|-------------------------------------------------|-------------------------------------------------|
D#|-------------------------------------------------|-------------------------------------------------|
G#|-X--4-----4--X--3--0--3--4-----7-----7--7--7-----|-0--0--0--0--0--0--0--0--0--3--3--3--3--3--3--3--|


F#|-------------------------------------------------|-------------------------------------------------|
C#|-------------------------------------------------|-------------------------------------------------|
G#|-------------------------------------------------|-------------------------------------------------|
D#|-------------------------------------------------|-------------------------------------------------|
G#|-3--0--3--4--X--3--0--3--4--X--3--0--3--4--X--4--|-X--4-----4--X--3--6--3--4-----7-----7--7--7-----|

                                                     [Verse 2]
F#|-------------------------------------------------|-------------------------------------------------|
C#|-------------------------------------------------|-------------------------------------------------|
G#|-------------------------------------------------|-------------------------------------------------|
D#|-------------------------------------------------|-4-----------------------------------------------|
G#|-0--0--0--0--0--0--0--0--0--3--3--3--3--3--3--3--|----4--3-----4-----4--4-----4-----4-----4--4--4--|


F#|-------------------------------------------------|-------------------------------------------------|
C#|-------------------------------------------------|-------------------------------------------------|
G#|-------------------------------------------------|-------------------------------------------------|
D#|-------------------------------------------------|-4-----------------------------------------------|
G#|-X--4--4-----4-----4-----7--7--7-----0--3-----0--|----4--3-----4-----X--4--X--4--X--4--X--4--4--4--|


F#|-------------------------------------------------|-------------------------------------------------|
C#|-------------------------------------------------|-------------------------------------------------|
G#|-------------------------------------------------|-------------------------------------------------|
D#|-------------------------------------------------|-4-----------------------------------------------|
G#|-X--0--0-----0--0--0-----3--3--3-----X--3-----X--|----4--3-----4-----X--4-----4-----4-----4--4--4--|


F#|-------------------------------------------------|-------------------------------------------------|
C#|-------------------------------------------------|-------------------------------------------------|
G#|-------------------------------------------------|-------------------------------------------------|
D#|-------------------------------------------------|-4-----------------------------------------------|
G#|----4--4-----4-----4-----7--7--7-----0--3-----0--|----4--3-----4-----X--4-----4-----4-----4--4--4--|

                                                     [2/4]
F#|-------------------------------------------------|-------|
C#|-------------------------------------------------|-------|
G#|-------------------------------------------------|-------|
D#|-------------------------------------------------|-------|
G#|-X--0--0-----0-----0-----3--3--3-----X--3--------|-------|

   [4/4 - Pre-Chorus 1]
F#|-------------------------------------------------|-------------------------------------------------|
C#|-------------------------------------------------|-------------------------------------------------|
G#|-------------------------------------------------|-------------------------------------------------|
D#|-------------------------------------------------|-------------------------------------------------|
G#|-4--------4--4-----4-----4-----------2-----2--2--|----0--0--0--0-----0-----0--------0--2--2-----2--|


F#|-------------------------------------------------|-------------------------------------------------|
C#|-------------------------------------------------|-------------------------------------------------|
G#|-------------------------------------------------|-------------------------------------------------|
D#|-------------------------------------------------|-------------------------2--2--2--2--2--2--2--2--|
G#|----4--4--4--4-----4-----4--4--------2--------2--|----0--0--0--0-----0-----------------------------|

   [Chorus 1]
F#|-------------------------------------------------|-------------------------------------------------|
C#|-------------------------------------------------|-------------------------------------------------|
G#|-------------------------------------------------|-------------4--------------4--------------------|
D#|-------------5-----------5-----------------------|-------------------------------------------------|
G#|-0--------0--------0--------------2-----------2--|----4--4-----------4-----4-----------2--2-----2--|


F#|-------------------------------------------------|-------------------------------------------------|
C#|-------------------------------------------------|-------------------------------------------------|
G#|-------------------------------------------------|-------------4--------------4--------------------|
D#|-------------5-----------5-----------------------|-------------------------------------------------|
G#|-0--------0--------0--------------2-----------2--|----4--4-----------4-----4-----------4--7--7--7--|


F#|-------------------------------------------------|-------------------------------------------------|
C#|-------------------------------------------------|-------------------------------------------------|
G#|-------------------------------------------------|-------------4--------------4--------------------|
D#|-------------5-----------5-----------------------|-------------------------------------------------|
G#|-0--------0--------0--------------2-----------2--|----4--4-----------4-----4-----------2--2-----2--|


F#|-------------------------------------------------|-------------------------------------------------|
C#|-------------------------------------------------|-------------------------------------------------|
G#|-------------------------------------------------|-------------4-----------------------------------|
D#|-------------5-----------5-----------------------|-------------------------------------------------|
G#|-0-----0--0--------0--------------2-----------2--|----4--4-----------4-----4-----7-----7--7--7--7--|

  [2/4]                      [5/8 - Intro Riff]
F#|-------------------------|-------------------------------|-------------------------------|
C#|-------------------------|-------------------------------|-------------------------------|
G#|-------------------------|-------------------------------|-------------------------------|
D#|-------------X--X--X--X--|-------------------------------|-------------------------------|
G#|-0-----------------------|-7--4-----4-----2--4--7--4-----|-7--4-----4-----4--0-----0-----|

                                   [6/8]                                 [5/8]
F#|-------------------------------|-------------------------------------|-------------------------------|
C#|-------------------------------|-------------------------------------|-------------------------------|
G#|-------------------------------|-------------------------------------|-------------------------------|
D#|-------------------------------|-------------------------------------|-------------------------------|
G#|-7--4-----4-----2--4--7--4-----|-7--4-----4-----4--5-----5--5--5--5--|-7--4-----4-----2--4--7--4-----|

                                                                   [6/8]
F#|-------------------------------|-------------------------------|-------------------------------------|
C#|-------------------------------|-------------------------------|-------------------------------------|
G#|-------------------------------|-------------------------------|-------------------------------------|
D#|-------------------------------|-------------------------------|-------------------------------------|
G#|-7--4-----4-----4--0-----0-----|-7--4-----4-----2--4--7--4-----|-7--4-----4-----4--3-----3-----3-----|

   [4/4]         [Verse 3]
F#|-------------|-------------------------------------------------|
C#|-------------|-------------------------------------------------|
G#|-------------|-------------------------------------------------|
D#|-------------|-4-----------------------------------------------|
G#|-------------|----4--3-----4-----X--4-----4-----4-----4--4--4--|


F#|-------------------------------------------------|-------------------------------------------------|
C#|-------------------------------------------------|-------------------------------------------------|
G#|-------------------------------------------------|-------------------------------------------------|
D#|-------------------------------------------------|-4-----------------------------------------------|
G#|----4--4-----4-----4-----7--7--7\\\\\0--3-----0--|----4--3-----4-----X--4-----4-----4-----X--X--4--|


F#|-------------------------------------------------|-------------------------------------------------|
C#|-------------------------------------------------|-------------------------------------------------|
G#|-------------------------------------------------|-------------------------------------------------|
D#|-------------------------------------------------|-4-----------------------------------------------|
G#|----0--0--X--0--X--0--X--3--3--3-----X--3-----0--|----4--3-----4-----X--4-----4-----4-----X--X--4--|


F#|-------------------------------------------------|-------------------------------------------------|
C#|-------------------------------------------------|-------------------------------------------------|
G#|-------------------------------------------------|-------------------------------------------------|
D#|-------------------------------------------------|-4-----------------------------------------------|
G#|-X--4--4-----4-----4-----7--7--7\\\\\0--3-----0--|----4--3-----4-----X--4-----4-----4-----X--X--0--|

                                                     [Breakdown]
F#|-------------------------------------------------|-------------------------------------------------|
C#|-------------------------------------------------|-------------------------------------------------|
G#|-------------------------------------------------|-------------------------------------------------|
D#|-------------------------------------------------|-2-----------------------------------------------|
G#|-X--0--0-----0-----0-----3--3--3-----X--3-----0--|----2--0-----1-----1--1-----1-----1-----1--1--1--|


F#|-------------------------------------------------|-------------------------------------------------|
C#|-------------------------------------------------|-------------------------------------------------|
G#|-------------------------------------------------|-------------------------------------------------|
D#|-------------------------------------------------|-2-----------------------------------------------|
G#|-1--1--1-----1-----1-----4--4--4-----4--7--7\\\\\|----2--0-----1-----1--1-----1-----1-----1--1--1--|

                                                     [2/4]
F#|-------------------------------------------------|-----------|
C#|-------------------------------------------------|-----------|
G#|-------------------------------------------------|-----------|
D#|-------------------------------------------------|-----------|
G#|----0--0-----0-----0-----3--3--3-----3--6--------|-X---------|

   [4/4 - Verse 4]
F#|-------------------------------------------------|-------------------------------------------------|
C#|-------------------------------------------------|-------------------------------------------------|
G#|-------------------------------------------------|-------------------------------------------------|
D#|-------------------------------------------------|-------------------------------------------------|
G#|-3--0--3--4-----3--0--3--4-----3--0--3--4-----4--|----4-----4-----3--0--3--4-----7-----7--7--7-----|


F#|--------------------------------------------------|-------------------------------------------------|
C#|--------------------------------------------------|-------------------------------------------------|
G#|--------------------------------------------------|-------------------------------------------------|
D#|--------------------------------------------------|-------------------------------------------------|
G#|-0--0--0-----0--0--0--0--0--3-3-3--3--3--3--3--3--|-3--0--3--4-----3--0--3--4-----3--0--3--4-----4--|


F#|-------------------------------------------------|-------------------------------------------------|
C#|-------------------------------------------------|-------------------------------------------------|
G#|-------------------------------------------------|-------------------------------------------------|
D#|-------------------------------------------------|-------------------------------------------------|
G#|----4-----4-----3--0--3--4-----7-----7--7--7-----|-0--0--0--0--0--0--0--0--0--3--3--3--3--3--3--3--|

   [2/4]   [4/4 - Pre-Chorus 2]
F#|-------|-------------------------------------------------|
C#|-------|-------------------------------------------------|
G#|-------|-------------------------------------------------|
D#|-------|-------------------------------------------------|
G#|-------|-4--------4--4-----4--4--4-----------1--------2--|


F#|-------------------------------------------------|-------------------------------------------------|
C#|-------------------------------------------------|-------------------------------------------------|
G#|-------------------------------------------------|-------------------------------------------------|
D#|-------------------------------------------------|-------------------------------------------------|
G#|----0--0--0--0-----0-----0-----------2-----2--2--|----4--4--4--4-----4-----4-----------2--------2--|

                                                         [Chorus 2]
F#|-----------------------------------------------------|-------------------------------------------------|
C#|-----------------------------------------------------|-------------------------------------------------|
G#|-----------------------------------------------------|-------------------------------------------------|
D#|-----------------------------------------------------|-------------5-----------5-----------------------|
G#|----0--0--0--0-----0-----7-7-----7---7-7-7--7--7--7--|-0--------0--------0--------------2-----------2--|


F#|-------------------------------------------------|-------------------------------------------------|
C#|-------------------------------------------------|-------------------------------------------------|
G#|-------------4--------------4--------------------|-------------------------------------------------|
D#|-------------------------------------------------|-------------5-----------5-----------------------|
G#|----4--4-----------4-----4-----------2--2-----2--|-0--------0--------0--------------2-----------2--|


F#|-------------------------------------------------|-------------------------------------------------|
C#|-------------------------------------------------|-------------------------------------------------|
G#|-------------4--------------4--------------------|-------------------------------------------------|
D#|-------------------------------------------------|-------------5-----------5-----------------------|
G#|----4--4-----------4-----4-----------4//7--7--7--|-0--------0--------0--------------2-----------2--|


F#|-------------------------------------------------|-------------------------------------------------|
C#|-------------------------------------------------|-------------------------------------------------|
G#|-------------4--------------4--------------------|-------------------------------------------------|
D#|-------------------------------------------------|-------------5-----------5-----------------------|
G#|----4--4-----------4-----4-----------2--2-----2--|-0--------0--------0--------------2-----------2--|


F#|-------------------------------------------------|-------------------------------------------------|
C#|-------------------------------------------------|-------------------------------------------------|
G#|-------------4-----------------------------------|-------------------------------------------------|
D#|-------------------------------------------------|-------------5-----------5-----------------------|
G#|----4--4-----------4-----4//7--7-----7--7--7--7--|-0--------0--------0--------------2-----------2--|


F#|-------------------------------------------------|-------------------------------------------------|
C#|-------------------------------------------------|-------------------------------------------------|
G#|-------------4--------------4--------------------|-------------------------------------------------|
D#|-------------------------------------------------|-------------5-----------5-----------------------|
G#|----4--4-----------4-----4-----------2--2-----2--|-0--------0--------0--------------2-----------2--|


F#|-------------------------------------------------|-------------------------------------------------|
C#|-------------------------------------------------|-------------------------------------------------|
G#|-------------4--------------4--------------------|-------------------------------------------------|
D#|-------------------------------------------------|-------------5-----------5-----------------------|
G#|----4--4-----------4-----4--------4--7--7--7--7--|-0--------0--------0--------------2-----------2--|


F#|-------------------------------------------------|-------------------------------------------------|
C#|-------------------------------------------------|-------------------------------------------------|
G#|-------------4--------------4--------------------|-------------------------------------------------|
D#|-------------------------------------------------|-------------5-----------5-----------------------|
G#|----4--4-----------4-----4-----------2--2--------|-0--------0--------0--------------2-----------2--|


F#|-------------------------------------------------|-------------------------------------------------|
C#|-------------------------------------------------|-------------------------------------------------|
G#|-------------4-----------------------------------|-------------------------3-----3--4--------------|
D#|-------------------------------------------------|----------------------------4--------------------|
G#|----4--4-----------4-----4--7-----7--7--7--7--7--|-0-----------X--X--X--X-----------------3--0--3--|

   [Outro 1]
F#|-------------------------------------------------|--------|--------|--------|
C#|-------------------------------------------------|--------|--------|--------|
G#|-------------------------------------------------|--------|--------|--------|
D#|-------------------------------------------------|--------|--------|--------|
G#|-4\\\\\------------------------------------------|--------|--------|--------|


F#|--------|--------|--------|--------|--------|--------|--------|--------|--------|
C#|--------|--------|--------|--------|--------|--------|--------|--------|--------|
G#|--------|--------|--------|--------|--------|--------|--------|--------|--------|
D#|--------|--------|--------|--------|--------|--------|--------|--------|--------|
G#|--------|--------|--------|--------|--------|--------|--------|--------|--------|

                              [Outro 2]
F#|--------|--------|--------|-------------------------------------------------|--------|
C#|--------|--------|--------|-------------------------------------------------|--------|
G#|--------|--------|--------|-------------------------------------------------|--------|
D#|--------|--------|--------|-------------------------------------------------|--------|
G#|--------|--------|--------|-6--6--7--7--9-----------------6--6--7--7--9-----|--------|


F#|-------------------------------------------------|-------------------------------------------------|
C#|-------------------------------------------------|-------------------------------------------------|
G#|-------------------------------------------------|-------------------------------------------------|
D#|-------------------------------------------------|-------------------------------------------------|
G#|-6--6--7--7--9-----------------6--6--7--7--9-----|-------------------------9--------6--9-----9-----|


F#|-------------------------------------------------|--------|
C#|-------------------------------------------------|--------|
G#|-------------------------------------------------|--------|
D#|-------------------------------------------------|--------|
G#|-4--4--4--4--2-----------------4-----7-----2-----|--------|


F#|-------------------------------------------------|-------------------------------------------------|
C#|-------------------------------------------------|-------------------------------------------------|
G#|-------------------------------------------------|-------------------------------------------------|
D#|-------------------------------------------------|-------------------------------------------------|
G#|-4-----7-----2-----------------4-----7-----2-----|-------------------------4-----------4-----------|


F#|-------------------------------------------------|-------------------------------------------------|
C#|-------------------------------------------------|-------------------------------------------------|
G#|-------------------------------------------------|-------------------------------------------------|
D#|-------------------------------------------------|-------------------------------------------------|
G#|-------------6-----7-----9-----------------6-----|-7-----9-----------------------------------------|


F#|-------------------------------------------------|-------------------------------------------------|
C#|-------------------------------------------------|-------------------------------------------------|
G#|-------------------------------------------------|-------------------------------------------------|
D#|-------------------------------------------------|-------------------------------------------------|
G#|-------------6-----7-----9-----------------6-----|-7-----9-----------------------------9-----9-----|


F#|-------------------------------------------------|--------|
C#|-------------------------------------------------|--------|
G#|-------------------------------------------------|--------|
D#|-------------------------------------------------|--------|
G#|-4--4--4--4--0-----------------4--4--7-----2-----|--------|


F#|-------------------------------------------------|-------------------------------------------------|
C#|-------------------------------------------------|-------------------------------------------------|
G#|-------------------------------------------------|-------------------------------------------------|
D#|-------------------------------------------------|-------------------------------------------------|
G#|-4-----7-----0-----------------4-----7-----2-----|-------------------------4-----4-----4--4--4--4--|

   [Outro 3]
F#|--------|--------|--------|--------|--------|--------|--------|--------|--------|--------|
C#|--------|--------|--------|--------|--------|--------|--------|--------|--------|--------|
G#|--------|--------|--------|--------|--------|--------|--------|--------|--------|--------|
D#|--------|--------|--------|--------|--------|--------|--------|--------|--------|--------|
G#|--------|--------|--------|--------|--------|--------|--------|--------|--------|--------|


F#|--------|--------|--------|--------|--------|--------|--------|--------|--------|
C#|--------|--------|--------|--------|--------|--------|--------|--------|--------|
G#|--------|--------|--------|--------|--------|--------|--------|--------|--------|
D#|--------|--------|--------|--------|--------|--------|--------|--------|--------|
G#|--------|--------|--------|--------|--------|--------|--------|--------|--------|


***********************************
| /   Slide up
| \   Slide down
| X   Dead note
***********************************


            
            
Suggest correction
Creating personal tab
Creating personal tab
You can edit any tab online and save it as your Personal.

You can edit, replace or remove any tab part or add personal notes – all changes will be seen only by you.

Personal tabs can be accessed anytime from any device, even offline.
Learn more »
Give kudos to tab author, rate the tab!
1 2 3 4 5
comments
print report bad tab
2 comments total.
0 reply
stanislas.kleczek 461 Dec 17, 2016 07:43 AM

The tuning is G# D# G# C# F# (low to high)

0 reply
TheBassDiaries 1,005 Dec 17, 2016 03:38 PM

Whoops, my bad, this has now been corrected. Good spot!

guest
You may want to rate the tab now too:
select rating
Wanna post a correction for this tab? Suggest correction