Oops, an error
Loading. Please wait.

Flatline intro tab

version 1
version 1

Intro

Interactive

2,851 views 18 this week
no commentswrite comment
1 2 3 4 5
1 last vote to show rating
add to favorites
×
Save as Personal and add changes to this tab that will be seen only by you. Learn more ›
×
You can save this tab as Personal to edit and correct it or add notes. All changes will be seen only by you. Learn more »
launch autoscroll
font size
0
reset
how to read this tab
guitar tuner
edit
Autoscroll
slow
fast
+/-
esc
set tempo
stop
Author
A friend and I have spent a few days trying to piece this together and we think we've just about got it.
My first proper go at a tab so there's bound to be a few things wrong
I've spaced it out a bit so it reads slightly easier.

We'll try and get the rest up in good time.

Hope this is helpful to you guys.

Peace,

-Sprout-

Guitar 1 - Dist.
 
      PM PM    PM PM    PM                                        
D#||------------------------------|------------------------------|
A#||------------------------------|------------------------------|
F#||------------------------------|------------------------------|
C#||------------------------------|------------------------------|
G#||------------------------------|------------------------0-----|
D#||--------5--------5-----5h--6--|-------------0h--1h--3-----3--|
G#||--0--0-----0--4-----4---------|--0h--1h--4-------------------|

  PM                           PM PM PM  PM                 
D#|----------------------------|------------------------------|
A#|----------------------------|------------------------------|
F#|----------------------------|------------------9h--10p--9--|
C#|----------------------------|---------------7--------------|
G#|-----0h--13-----------7--8--|--------8--10-----------------|
D#|----------------------------|------------------------------|
G#|--0----------0--4--5--------|--0--7------------------------|

  PM PM    PM PM    PM                                        
D#|------------------------------|------------------------------|
A#|------------------------------|------------------------------|
F#|------------------------------|------------------------------|
C#|------------------------------|------------------------------|
G#|------------------------------|------------------------0-----|
D#|--------5--------5-----5h--6--|-------------0h--1h--3-----3--|
G#|--0--0-----0--4-----4---------|--0h--1h--4-------------------|

  PM                           PM PM PM  PM                     
D#|----------------------------|--------------------------------|
A#|----------------------------|--------------------------------|
F#|----------------------------|--------------------------------|
C#|----------------------------|---------------7--12p--11-------|
G#|-----0h--13-----------7--8--|--------8--10--------------10---|
D#|----------------------------|--------------------------------|
G#|--0----------0--4--5--------|--0--7--------------------------|



************************************

| h  Hammer-on
| p  Pull-off
| PM Palm Mute 

************************************

            
            
Suggest correction
Creating personal tab
Creating personal tab
You can edit any tab online and save it as your Personal.

You can edit, replace or remove any tab part or add personal notes – all changes will be seen only by you.

Personal tabs can be accessed anytime from any device, even offline.
Learn more »
Give kudos to tab author, rate the tab!
1 2 3 4 5
comments
print report bad tab
guest
You may want to rate the tab now too:
select rating
Wanna post a correction for this tab? Suggest correction