Oops, an error
Loading. Please wait.

Masamune guitar pro

version 1
version 1

Whole song

Interactive

6,384 views 1 this week
5 commentsread comments
1 2 3 4 5
x 5
add to favorites
guitar tuner
Autoscroll
slow
fast
+/-
esc
set tempo
stop
"Masamune"
demo version
Play now

or get full version for Free

×
Get full version now!
Learn and play this song
in Tab Pro
Try for free

or get $10 off Welcome Bonus

Get welcome bonus
Get access to Tab Pro version of “Masamune”!
Tab Pro is a premium guitar tab service, available on PC, Mac, iOS and Android
TRY FOR FREE
To download “Masamune” Guitar Pro tab click button below
Please note that you must have Guitar Pro software installed on your
computer in order to view this file.
Suggest correction
comments
report bad tab
5 comments total. Showing first comments.
0 reply
fender512 1,316 Dec 01, 2012 04:00 AM

Great job, although the intro is a bit off. The first measure should be:
-------------------------
-13-14-13----------------
-------------------------
-------------------------
----------12-16-14-16-12-
-------------------------
-------------------------

0 reply
fender512 1,316 Dec 01, 2012 04:02 AM

Sorry, I mean:
-------------------------
-------------------------
-13-14-13----------------
-------------------------
----------12-16-14-16-12-
-------------------------
-------------------------

0 reply
brothir 41 Dec 07, 2012 01:59 AM

The lead melody part is really off. The rest seems good but the lead melody makes me want to tear my ears off.

guest
You may want to rate the tab now too:
select rating