Oops, an error
Loading. Please wait.

Heart Full Of Pride bass

version 1
version 1

Whole song

Interactive

by Perkele
8,130 views 9 this week
no commentswrite comment
1 2 3 4 5
3 more votes to show rating
add to favorites
×
Save as Personal and add changes to this tab that will be seen only by you. Learn more ›
×
You can save this tab as Personal to edit and correct it or add notes. All changes will be seen only by you. Learn more »
launch autoscroll
font size
0
reset
guitar tuner
edit
Autoscroll
slow
fast
+/-
esc
set tempo
stop
Difficulty
Artist: Perkele
Song: Heart Full of Pride

Intro(Guitar Only)
C#- G#- A#- F#Minor
Bass comes in After the guitar goes through this chord progression 6 times on the 
7th  bass comes in on the A#


Intro
G --------------------------|
D -----------44444444-------|
A --------------------------|
E ---66666666---------------|

Verse
G ----------------------------------------------------------|
D ----------------------------------44444444----------------| X4
A ----44444444----------------------------------------------|
E --------------44444444-66666666---------------------------|

G ---------------|
D--6-6-6-643-----|  
A -----------4---|
E ---------------|

        
Chorus (Same as Verse)
G ----------------------------------------------------------|
D ----------------------------------44444444----------------| X4
A ----44444444----------------------------------------------|
E --------------44444444-66666666---------------------------|

G ---------------|
D--6-6-6-643-----|  
A -----------4---|
E ---------------|


Verse
G ----------------------------------------------------------|
D ----------------------------------44444444----------------| X4
A ----44444444----------------------------------------------|
E --------------44444444-66666666---------------------------|

G ---------------|
D--6-6-6-643-----|  
A -----------4---|
E ---------------|

Bridge (Guitar Solo)
G ----------------------------------------------------------|
D ----------------------------------44444444----------------| X4
A ----44444444----------------------------------------------|
E --------------44444444-66666666---------------------------|

G ---------------|
D--6-6-6-643-----|  
A -----------4---|
E ---------------|



Chorus

G ----------------------------------------------------------|
D ----------------------------------44444444----------------| X4
A ----44444444----------------------------------------------|
E --------------44444444-66666666---------------------------|

G ---------------|
D--6-6-6-643-----|  
A -----------4---|
E ---------------|



2nd Bridge  (Brief Instrumental)

G ----------------------------------------------------------|
D ----------------------------------44444444----------------| X2
A ----44444444----------------------------------------------|
E --------------44444444-66666666---------------------------|

Verse

G ----------------------------------------------------------|
D ----------------------------------44444444----------------| X4
A ----44444444----------------------------------------------|
E --------------44444444-66666666---------------------------|

G ---------------|
D--6-6-6-643-----|  
A -----------4---|
E ---------------|

        
Chorus

G ----------------------------------------------------------|
D ----------------------------------44444444----------------| X4
A ----44444444----------------------------------------------|
E --------------44444444-66666666---------------------------|

G ---------------|
D--6-6-6-643-----|  
A -----------4---|
E ---------------|


Break 

(The guitar will keep playing and you will come in with the drums to accent these notes)
G -----------------------|
D --6-5-4-3--------------|
A------------4-----------|X2
E -----------------------|

(Slowly build in volume and intensity)
G ----------------------------------------------------------|
D ----------------------------------44444444----------------| X2
A ----44444444----------------------------------------------|
E --------------44444444-66666666---------------------------|

G ---------------|
D--6-6-6-643-----|  
A -----------4---|
E ---------------|

Chorus
G ----------------------------------------------------------|
D ----------------------------------44444444----------------| X8
A ----44444444----------------------------------------------|
E --------------44444444-66666666---------------------------|



Outtro

G ----------------------|
D--6-6-6-643----643-----|  
A -----------4-------4--|
E ----------------------|



            
            
Suggest correction
Creating personal tab
Creating personal tab
You can edit any tab online and save it as your Personal.

You can edit, replace or remove any tab part or add personal notes – all changes will be seen only by you.

Personal tabs can be accessed anytime from any device, even offline.
Learn more »
Give kudos to tab author, rate the tab!
1 2 3 4 5
comments
print report bad tab
guest
Wanna post a correction for this tab? Suggest correction