Oops, an error
Loading. Please wait.

Still Thinking chords

13 views 1 this week
1 commentread comment
1 2 3 4 5
3 more votes to show rating
add to favorites
×
Save as Personal and add changes to this tab that will be seen only by you. Learn more ›
×
You can save this tab as Personal to edit and correct it or add notes. All changes will be seen only by you. Learn more »
launch autoscroll
font size
0
reset
transpose
0
reset
simplify chords
display chords
guitar tuner
edit
Autoscroll
slow
fast
+/-
esc
set tempo
stop
Strumming
There is no strumming pattern for this song yet. and get +5 IQ
Still Thinking
Wrote by Vlastimil Tecson and Perl Barcelona
Performed by Perl Barcelona, Dj Tulalian and John Santos

[Intro]
            G                    F#/D                Bm                  C
e|------------------------|---------------|---------------------|------------------|
B|-------3----0-----------|------3--0-----|-------3-------------|------1--1--------|
G|----2-------------2---0-|---2-----------|----4-------4--------|----0--------0----|
D|------------------------|---------------|----------------4----|------------------|
A|------------------------|---------------|----2-------2--------|----3----3--------|
E|----3-------3-----------|---2-----2-----|---------------------|------------------|

[Verse]
G               F#/D
We used to be together
Bm                      C
Bring all the stuff we gather
G               F#/D
Saying we'll last forever
Bm                  C
Hoping it won't be over

[Pre Chorus]
Em              D              G             C 
But.. what happenned to the promises that we made
Em              D           G                     C
Still, still hoping that I, I could turn back the time

[Chorus]
G                          F#/D
I'm still thinking why you left me
Bm                  C
I don't know what I did to be left hangin'
G                          F#/D
I'm still thinking why you left me
Bm                  C
I can't think of a word to describe it

[Instrumental]
            G                    F#/D                Bm                  C
e|------------------------|---------------|---------------------|------------------|
B|-------3----0-----------|------3--0-----|-------3-------------|------1--1--------|
G|----2-------------2---0-|---2-----------|----4-------4--------|----0--------0----|
D|------------------------|---------------|----------------4----|------------------|
A|------------------------|---------------|----2-------2--------|----3----3--------|
E|----3-------3-----------|---2-----2-----|---------------------|------------------|

[Verse]
G                    F#/D
Days have past still missing
Bm                   C
the time you used to love me 
G                F#/D
Wondering if you still can
Bm                 C
change the way you treat me

[Pre Chorus]
Em              D              G             C 
Why.. what happenned to the promises that we made
Em              D           G                     C
Still, still hoping that I, I could turn back the time

[Chorus]
G                          F#/D
I'm still thinking why you left me
Bm                  C
I don't know what I did to be left hangin'
G                          F#/D
I'm still thinking why you left me
Bm                  C
I can't think of a word to describe it

[Bridge]
Am               C
I don't know how I'll be able
G             D
spend my valentine
Am                           C
Still daydreaming of all the thoughts
G                D
That made me sacrifice

[Chorus]
G                          F#/D
I'm still thinking why you left me
Bm                  C
I don't know what I did to be left hangin'
G                          F#/D
I'm still thinking why you left me
Bm                  C
I can't think of a word to describe it
G                  F#/D
Still thinking ohh still thinking
Bm              C
Still thinking oh oh ohh 

            
            
Suggest correction
Creating personal tab
Creating personal tab
You can edit any tab online and save it as your Personal.

You can edit, replace or remove any tab part or add personal notes – all changes will be seen only by you.

Personal tabs can be accessed anytime from any device, even offline.
Learn more »
Give kudos to tab author, rate the tab!
1 2 3 4 5
comments
print report bad tab
1 comment total.
0 reply
dijey3056 10 Oct 10, 2017 03:24 PM

OMYGID THIS IS SO GOOD

guest
You may want to rate the tab now too:
select rating
Wanna post a correction for this tab? Suggest correction