Oops, an error
Loading. Please wait.

No Se Quedarme tab

17 views 1 this week
no commentswrite comment
1 2 3 4 5
3 more votes to show rating
add to favorites
×
Save as Personal and add changes to this tab that will be seen only by you. Learn more ›
×
You can save this tab as Personal to edit and correct it or add notes. All changes will be seen only by you. Learn more »
launch autoscroll
font size
0
reset
how to read this tab
guitar tuner
edit
Autoscroll
slow
fast
+/-
esc
set tempo
stop
INTRO
e|-------------------------------------------------------
B|-9s10...-10-12-12s14...-14-14s15-14-14s12-12-10-7^...--
G|-------------------------------------------------------
D|-------------------------------------------------------
A|-------------------------------------------------------
E|-------------------------------------------------------


e|-------------------------------------------------------
B|-7-9-9s10..-10s9-9-7...-------7..------7--------7-9s10-
G|-------------------------9^10-----9^10----9^10---------
D|-------------------------------------------------------
A|-------------------------------------------------------
E|-------------------------------------------------------


e|-------------------------------------------------------
B|-10s9-9------------------------------------------------
G|--------7------------9^10^9s14-------------------------
D|-----------9^10^9-7------------------------------------
A|-------------------------------------------------------
E|-------------------------------------------------------


LA OTRA GUITARRA ACOMPAÑA MUY DESPACIO CON LOS ACORDES:
A C#m F#m B7
A F#m Bm E A D(C#5 D5 E5 E)

s:slide
...:dejar sonar
^:levantar la cuerda hasta el traste que esta al lado(Ej:9^10)
x^y^x:levantar y despues volver la cuerda a la normalidad


HOLA TODOS!!
BUENO ACA LES DEJO EL SOLO DEL COMIENZO DE ESTA CANCION
DE UNA MUY BUENA BANDA SALTEÑA!!!
BUENO ME VOY DESPIDIENDO SALUDOS A TODA LA VAGANCIA DEL INTER!!!
SOLAMENTE ROCK AND ROLL!!!
ES MI MANERA DE SER FELIZ!!

//**YAMIL**//

            
            
Suggest correction
Creating personal tab
Creating personal tab
You can edit any tab online and save it as your Personal.

You can edit, replace or remove any tab part or add personal notes – all changes will be seen only by you.

Personal tabs can be accessed anytime from any device, even offline.
Learn more »
Give kudos to tab author, rate the tab!
1 2 3 4 5
comments
print report bad tab
guest
Wanna post a correction for this tab? Suggest correction