Oops, an error
Loading. Please wait.

Otra Vez tab

53 views 1 this week
no commentswrite comment
1 2 3 4 5
3 more votes to show rating
add to favorites
×
Save as Personal and add changes to this tab that will be seen only by you. Learn more ›
×
You can save this tab as Personal to edit and correct it or add notes. All changes will be seen only by you. Learn more »
launch autoscroll
font size
0
reset
how to read this tab
guitar tuner
edit
Autoscroll
slow
fast
+/-
esc
set tempo
stop
Intro (4x) Riff 1

-----------------------------
-----------------------------
-----2-------2-----2-----2---
--------2h4-----------4------
--0-------------0------------
-----------------------------

La
Cuántos años tienes tu
quién da menos, quién da más

La
cantarías en un blues,
y bailarías al compás

Riff 1 (4x)

Cuántos años tienes tu
quién da menos, quién da más
cantarías en un blues,
y bailarías al compás

(Puente)

1º(3x)                2º(1x)               3º(4x)
--0-----2-2------- | --0-----2-2------- | --0-----2-2-------
--2-----2-2------- | --2-----2-2------- | --2-----2-2-------
--2-----2-2------- | --2-----2-2--4b--- | --2-----2-2-------
--2-----2-2------- | --2-----2-2------- | --2-----2-2-------
--0--4--0-0--4/5-- | --0--4--0-0------- | --0--4--0-0--4/5--
--0-----0-0------- | --0-----0-0------- | --0-----0-0-------

(2X)
--00-------00---------00-------00-----------00-------00--------00-------------------
--22-------22---------22-------22-----------22-------22--------22-------------------
--22-------22---------22-------22-----------22-------22--------22-------------------
--22-------22---------22-------22-----------22-------22--------22-------------------
--00-0h3p0-00-0h3p0---00-0h3p0-00-----------00-0h3p0-00-0h3p0--00-------------------
--00-------00---------00-------00--0h3p0----00-------00--------00-4p3p0-4p3p0-4p3p0-

Riff 2 (3x)
--------3---------------------
---3/5-----5--3---------------
-----------------4--2--2p4--2-
------------------------------
--0-0-0-0-0-0-0-0-0-0-0-0-0-0-
------------------------------
(1x)
--------3---------------------
---3/5-----5--3-----------2---
-----------------4--4b4b--2---
--------------------------2---
--0-0-0-0-0-0-0-0-0-0-0-0-0-0-
------------------------------


Riff 3 (2x)
--00-------00---------00-------00---------------
--22-------22---------22-------22---------------
--22-------22---------22-------22---------------
--22-------22---------22-------22---------------
--00-0h3p0-00-0h3p0---00-0h3p0-00---------------
--00-------00---------00-------00--4p3p0-4p3p0--

   Hoy me pesan las manos

--00-------00---------00-------00---------------
--22-------22---------22-------22---------------
--22-------22---------22-------22---------------
--22-------22---------22-------22---------------
--00-0h3p0-00-0h3p0---00-0h3p0-00---------------
--00-------00---------00-------00--4p3p0-4p3p0--

   y me duelen los pies

--00-------00---------00-------00-------00---------------
--22-------22---------22-------22-------22---------------
--22-------22---------22-------22-------22---------------
--22-------22---------22-------22-------22---------------
--00-0h3p0-00-0h3p0---00-0h3p0-00-0h3p0-00---------------
--00-------00---------00-------00-------00--4p3p0-4p3p0--

  he caminado tanto solo para ir a verte una sola vez

Hoy me pesan las manos
y me duelen los pies
he caminado tanto solo para ir a verte una sola y otra vez
y otra vez
y otra vez
y otra vez
             hey! hey!

Riff 4 (muchas x)
--00-------00---------00-------00-------
--22-------22---------22-------22-------
--22-------22---------22-------22-------
--22-------22---------22-------22-------
--00-0h3p0-00-0h3p0---00-0h3p0-00-------
--00-------00---------00-------00--3-4--

He caminado tanto
que me duelen los pies
he caminado tanto
solo para ir a verte una sola vez
Hoy me pesan las manos
y me duelen los pies
he caminado tanto
solo para ir a verte una sola vez
y otra vez
y otra vez
y otra vez
             hey! hey!

            
            
Suggest correction
Creating personal tab
Creating personal tab
You can edit any tab online and save it as your Personal.

You can edit, replace or remove any tab part or add personal notes – all changes will be seen only by you.

Personal tabs can be accessed anytime from any device, even offline.
Learn more »
Give kudos to tab author, rate the tab!
1 2 3 4 5
comments
print report bad tab
guest
Wanna post a correction for this tab? Suggest correction